Song name
# A B C D E F G H I J K L M N O P Q R S T U V W X Y Z

Rembrandts - Someone tab

Song: Someone
By: Rembrandts
Transcribe by: einre_latnu@yahoo.com (my brother)
                       or
               eric_acoustic4396@yahoo.com
Transcribe by: Ernie Untal (MSU)soon to be Engr...
               Eric Untal  (NDDC)
        our friend Rhiel John...
All From: General Santos City...

This song is 100% sure!!!!. This is not for correction..
Just to share my knowledge & ability
this song has no mistake at all...
Just listen to the song for the rhythem....


Guitar tune: Standard 



  Verse (2x)                      Refrain          
--------------------------------------0-------0-------0-------0-
-----0-------0-------0-----0--------0-------0-------0-------0---
-----4-------4-------4-----4--------2-------2-------2-------2---
---4---4---4---4---4---4-----4----2-------2-------2-------2-----
-2------------------------------0---------------0---------------
---------2-------0-------0--------------4---------------4-------



                      1st time              2nd time                                                
-------------------------------------------------2--2--
------0-------0---------------0------------------2--2--
------4-------4------------3----3--------------3----3--
----4---4---2---2--------4--------4----------4------4--
--2--------------------4------------4------4--------4--
----------0----------2-------------------2----------2--


Chorus: F#-F-E-F# (3x) -A

Interlude:

--------------------------------Repeat verse, refrain and chorus
-------0---0---0-----0---0------
-------4---4---4-----4---4------
-----4---4---4-----4---4---4----
--2--------------2--------------
--------------------------------

Solo:

-4-------------4-------------------------------------
-5-------------4--------7(9)7------------------------
-6----6-8-9----5----5-8-------8----4/6---------------
-6--6----------6--6--------------------7-------------
-4-------------6-------------------------7-4-6-7-6---
---------------4-----------------------------------5-



-------------------0-9------------------------10---9----------
-----------------------------10---9--------------------6---9--
-----------------6--------------------5---6-------------------
-----------4-6-7----------------------------------------------
-4-7---4-7-------------0-4-7----------------------------------
-----5--------------------------------------------------------


-7-10-9-10-9-10-9h10-12-14-12h14-16-17-16h17-19-19(21)-21-----------
--------------------------------------------------------------------
--------------------------------------------------------------------
--------------------------------------------------------------------
--------------------------------------------------------------------
--------------------------------------------------------------------

Outro:

-------0-------------0-----------0-------------0-------------0------
-----0---0---0-----0---0-------0---0---0-----0---0---0-----0---0---0
---4-------4-----4-------4---4-------0-----4-------4-----4-------4--
--------------------------------------------------------------------
-2-----------------------------------------------------4------------
---------------2-----------0-------------0--------------------------



-------0-------------0--------------0--------
-----0---0---0-----0---0---0------0---0---0--
---4-------4-----4-------4------4-------4----
---------------------------------------------
-4-------------0--------------0--------------
---------------------------------------------

                                Guitar II
                               --------------------0-----
                               --------------------0-----
                               --------------------2-----
                               --------------------2-----
                               -2h4-2-0-2/4p2------1-----
                               ---------------4-2--0-----
Tap to rate this tab
# A B C D E F G H I J K L M N O P Q R S T U V W X Y Z