Song name
# A B C D E F G H I J K L M N O P Q R S T U V W X Y Z

Reminition - On My Own tab

song: on my own
artist: reminition
e-mail: reminition@hotmail.com

Intro/Chorus

e|---------------------------------------|
b|---------------------------------------|
g|---------------------------------------|
d|--5-5-5-5--8-8-8-8--3-3-3-3--8-8--5-5--|
a|--5-5-5-5--8-8-8-8--3-3-3-3--8-8--5-5--|
e|--3-3-3-3--6-6-6-6--1-1-1-1--6-6--3-3--|

Verse

e|--------------------------------------|
b|--------------------------------------|
g|--------------------------------------|
d|--5-5-5-5--8-8-8-8--3-3-3-3--5-5-5-5--|
a|--5-5-5-5--8-8-8-8--3-3-3-3--5-5-5-5--|
e|--3-3-3-3--6-6-6-6--1-1-1-1--3-3-3-3--|

Intro x4
Verse x4
Chorus x4
Verse x4
Chorus x4
Verse x4
Chorus x8
Tap to rate this tab
# A B C D E F G H I J K L M N O P Q R S T U V W X Y Z