Song name
# A B C D E F G H I J K L M N O P Q R S T U V W X Y Z

Renaissance - Packingtons Pound tab

Packington's Pound.
Made in honor of Sir John Packington (1549-1625)
One of Queen Elizabeth's favorites.
Used in The Beggar's Opera - "Thus Gamesters United."

Original Version.

e|-----------|-----------|-----------|--------------|
B|-----0--1--|--0--------|-----0--1--|--0-----1--3--|
G|--2--------|--1--------|--2--------|--1-----------|
D|--2--------|-----2-----|--2--------|-----2--------|
A|--0--------|-----------|--0--------|--------------|
E|-----------|--------0--|-----------|--------------|

e|--0--1--0--|-----------|-----------|-----|
B|-----------|--3--0-----|-----1--0--|-----|
G|-----------|--------0--|--2-----1--|--2--|
D|-----------|-----------|--2--------|--2--|
A|--3--------|-----------|--0--------|--0--|
E|-----------|--3--------|--------0--|-----|

e|-----------------|-----------|-----------------|
B|-----------0--1--|--0--------|-----0--1--3--1--|
G|--2--1--2--------|--1--------|--2--------------|
D|-----------------|-----2-----|-----------------|
A|--0--------------|-----------|--0--------------|
E|-----------------|--------0--|-----------------|

e|--------------|--0--1--0-----0-----|-----------|
B|--0-----1--3--|-----------3-----1--|--3--0-----|
G|--1-----------|--------------------|--------0--|
D|-----2--------|--------------------|-----------|
A|--------------|--3-----------------|--3--------|
E|--0-----------|--------------------|-----------|

e|--------------|-----|--0--3--2--|--0-----|
B|-----0--1--0--|-----|--0-----0--|--0--0--|
G|--2--------1--|--2--|-----------|--------|
D|--2-----------|--2--|-----------|--------|
A|--0-----------|--0--|--------2--|--------|
E|-----------0--|-----|--0--------|--0-----|

e|--0--3--2--|--0-----|--0--3--2--|--0--3--2--|
B|--0-----0--|--0-----|--0-----0--|--0-----0--|
G|-----------|--------|-----------|-----------|
D|-----------|--------|-----------|-----------|
A|--------2--|--------|--------2--|--------2--|
E|--0--------|--0-----|--0--------|--0--------|

e|--0--2--3--2--|--0-----|--0--1--0--|-----------|
B|--0--------0--|--0--0--|-----------|--3--0-----|
G|--------------|--------|-----------|--------0--|
D|--------------|--------|-----------|-----------|
A|-----------2--|--------|--3--------|--3--------|
E|--0-----------|--0-----|-----------|-----------|

e|-----------|-----------|--0--1--0--|-----------|
B|--1--3--1--|--0--------|-----------|--3--0-----|
G|-----------|--1--------|-----------|--------0--|
D|-----------|-----2-----|-----------|-----------|
A|--0--------|-----------|--3--------|-----------|
E|-----------|--------0--|-----------|--3--------|

e|--------------|-----|--0-----0--1--0--|-----------|
B|-----0--1--0--|-----|-----3-----------|--3--0-----|
G|--2--------1--|--2--|-----------------|--------0--|
D|--2-----------|--2--|-----------------|-----------|
A|--0-----------|--0--|--3--------------|-----------|
E|-----------0--|-----|-----------------|--3--------|

e|-----------------|-----------|--0-----0--1--0--|
B|--1--0--1--3--1--|--0--------|-----3-----------|
G|-----------------|--1--------|-----------------|
D|-----------------|-----2-----|-----------------|
A|--0--------------|-----------|--3--------------|
E|-----------------|--------0--|-----------------|

e|-----------|--------------|-----||
B|--3--0-----|-----0--1--0--|-----||
G|--------0--|--2--------1--|--2--||
D|-----------|--2-----------|--2--||
A|-----------|--0-----------|--0--||
E|--3--------|-----------0--|-----||


By Jacob Korsholm
Tap to rate this tab
# A B C D E F G H I J K L M N O P Q R S T U V W X Y Z