Song name
# A B C D E F G H I J K L M N O P Q R S T U V W X Y Z

Rent - Littly Riff Right Before Glory tab

This is the little thing Roger plays right before he goes outside to sing Glory. This is
when fingerpicked.


e|--2-3-2-0-2h3-2--------|
B|-----------------------|
G|-----------------------|
D|-0-0-0-0-0-------------|
A|-----------------3--2--|
E|-----------------------|


All that is a D chord...

There are a few chords that are strummed right here, but I'm not sure what they are.
he goes into "Musetta's Waltz" which is this.

e|--7---------7-6-------6-4--|-4-6-77-------------|
B|----------7---------7------|--------55-7-88-44--|
G|--------8---------8--------|--------------------|
D|------9---------9----------|--------------------|
A|---------------------------|--------------------|
E|---------------------------|--------------------| then that first half is repeated. 
when Glory starts.
Tap to rate this tab
# A B C D E F G H I J K L M N O P Q R S T U V W X Y Z