Song name
# A B C D E F G H I J K L M N O P Q R S T U V W X Y Z

Repo The Genetic Opera - Seventeen tab

Fun and very easy to learn and play.
Learned it and tabbed it but I have issues with the Breakdown so I stole that part 
from someone else :)

Song: Seventeen
from the Movie: Repo! The Genetic Opera

Tuning: Standard

Intro
e|-------------------------------------|
B|-------------------------------------|
G|-------------------------------------|
D|-------------------------------------|
A|-6-6-5555-6-6-5555-6-6-5555-6-6-5555-|
E|-4-4-3333-4-4-3333-4-4-3333-4-4-3333-|

Verse
e|-------------------------------------|
B|-------------------------------------|
G|-------------------66666666-88888888-|
D|-------------------66666666-88888888-|
A|-6-6-5555-6-6-5555-44444444-66666666-|
E|-4-4-3333-4-4-3333-------------------| x4

Riff                                   
e|------8---999p8-88------8---999p8-88-----|
B|-9-11---9----------9-11---9--------------|
G|-----------------------------------------|
D|-----------------------------------------|
A|-----------------------------------------|<-----\
E|-----------------------------------------|       \
                                                    \
  Strum with the Lyrics                              > x2
   (Hey hey hey hey hey!)                           /
e|----------------------------|                    /
B|----------------------------|    <--------------/
G|-4-4--4-4-4--4-4--2-2-2-----|
D|-4-4--4-4-4--4-4--2-2-2-----|
A|-2-2--2-2-2--2-2--0-0-0-----|
E|----------------------------|

Repeat Verse and the Riff

Breakdown (Tabbed by ChemicalIsaac)
                   PM================
e|----6~~---------------------------|
B|----6~~---------------------------|
G|----6~~---------------------------|
D|----8~~---------------------------|             (8x)
A|----8~~-------------6-(8x)--7-(4x)|
E|----6~~---------------------------|

PM====         PM=================
e|---------------------------------|
B|---------------------------------|
G|-----------8---------------------|
D|-----------8---------------------|   Do this a bunch
A|-6--6-6----6---6-6-6-6-6-7-7-7-7-|
E|---------------------------------|

End on

e|-------------------|
B|-------------------|
G|--8----------------|
D|--8----------------|
A|--6----------------|
E|-------------------|

Tap to rate this tab
# A B C D E F G H I J K L M N O P Q R S T U V W X Y Z