Song name
# A B C D E F G H I J K L M N O P Q R S T U V W X Y Z

Republic Of Loose - Break tab

Help us improve GuitareTab! Take a short survey!
-------------------------------------------------------------------------------
			     'Break' - Republic Of Loose
-------------------------------------------------------------------------------
Tabbed by: Izakit
Email: izakit@gmail.com

Not only is this band great musically, they're Irish too! This is me first Tab to go 
I saw the other lad's tab and I play it a different way. If I'm wrong just email me and 
me. I'd be glad to hear what ya think, good or bad.

Tuning:EADGBe

This is the intro and verse riff. If you're playing acoustic, strum near the bridge to 
loads of treble. Sounds pretty well.

Guitar 1
e|---------------------------------------------------------------------------|
B|---------------------------------------------------------------------------|
G|9-9-9/10-7-----9-9-9/10-7---9-9-9/10-7----9-9-9/10-7-----------------------|
D|9-9-9/10-7-----9-9-9/10-7---9-9-9/10-7----9-9-9/10-7-----------------------|
A|7-7-7/8--5-----7-7-7/8--5---7-7-7/8--5----7-7-7/8--5-----------------------|
E|7-7-7/8--5-----7-7-7/8--5---7-7-7/8--5----7-7-7/8--5-----------------------|

This is just the little lick played over the verse.

Guitar 2
e|---------------------------------------------------------------------------|
B|---------------------------------------------------------------------------|
G|-9-9-9h10-7----9-9-9h10-7----9-9-9h10-7----9~~9~~9~~9~~--------------------|
D|---------------------------------------------------------------------------|
A|---------------------------------------------------------------------------|
E|---------------------------------------------------------------------------|

This is just the pre-solo half-time feel. Don't play the chords straight, just barely 
them, only slightly.

e|------8--------7-------5--------4------------------------------------------|
B|-----8--------7-------5--------4-------------------------------------------|
G|----9--------8-------6--------5--------------------------------------------|
D|---10-------9-------7--------6---------------------------------------------|
A|--10-------9-------7--------6----------------------------------------------|
E|-8--------7-------5--------4-----------------------------------------------|


| /  slide up
| \  slide down
| h  hammer-on
| p  pull-off
| ~  vibrato
| +  harmonic
| x  Mute note
===============================================================================
Related for Break tab