Song name
# A B C D E F G H I J K L M N O P Q R S T U V W X Y Z

Reset - Friend tab

===========================================================
	Artist: Reset
	  Song: Friend
	 Album: No Limit
===========================================================

Tabbed: TheMutts @ Ultimate-Guitar.com
Email: st_jimmy_themutts@yahoo.com

Tuning: Standard

(these are the chords, the strumming is easy to figure out)
----------------------
Verse
----------------------

|--------------|
|--------------|
|--5-----3-----|
|--5--5--3--3--|
|--3--5--1--3--|repeat as needed
|-----3-----1--|


----------------------
Chords
----------------------

|-----------------|
|-----------------|
|--7-----5-----3--|
|--7--9--5--5--3--|
|--5--9--3--5--1--|repeat twice
|-----7-----7-----|


----------------------
Interlude
----------------------

|-------------|
|-------------|
|--7~--7------|
|--7~------7--|repeat as needed
|--5~----5----|
|-------------|
Tap to rate this tab
# A B C D E F G H I J K L M N O P Q R S T U V W X Y Z