Song name
# A B C D E F G H I J K L M N O P Q R S T U V W X Y Z

Rev Gary Davis - Candy Man tab

Here's the link to the original 
http://www.youtube.com/watch?v=hlQZwHcBqyQ
and an instructional video (This is the one I tabbed).
http://www.youtube.com/watch?v=EOQZEQAgcA0

                                         
E|-------3---------------|-----------3-------------|
B|---------------1-------|-----1-----------1-------|
G|-------0----------2----|--------0-----------2----|
D|-----------------------|-------------------------|
A|--3---------3----------|--3-----------3----------|
e|-----------------------|-------------------------|
                                     
-------0---------------|-----------0-------------|
---------------1-------|-----1-----------1-------|
-------0----------2----|--------0-----------2----|
-----------------------|-------------------------|
--3---------3----------|--3-----------3----------|
-----------------------|-------------------------|

-------1---------------|-----------1-------------|
---------------0-------|-----0-----------0-------|
-------0----------2----|--------0-----------2----|
-----------------------|-------------------------|
-----------------------|-------------------------|
--3---------3----------|--3-----------3----------|
                                      
-------0---------------|-----------0-------------|
---------------1-------|-----1-----------1-------|
-------0----------2----|--------0-----------2----|
-----------------------|-------------------------|
--3---------3----------|--3-----------3----------|
-----------------------|-------------------------|
                                      
-------3---------------|-----------3-------------|
---------------1-------|-----1-----------1-------|
-------0----------2----|--------0-----------2----|
-----------------------|-------------------------|
--3---------3----------|--3-----------3----------|
-----------------------|-------------------------|
                                      
-------0---------------|-----------0--------------|
---------------1-------|-----1-----------1--------|
-------0----------2----|--------0-----------2-----|
-----------------------|--------------------------|
--3---------3----------|--3-----------3-----------|
-----------------------|-----------------------0--|
                                     
-----------------------|-------------0----3----|
-------------1----3----|-----------------------|
-----2-----------------|-----0------------0----|
--------3--------------|--------2--------------|
-----------------------|-----------------------|
--1--------------------|--3----------3---------|
                                       
------------------------|------------0---------|
-------------0----------|--1--------------1----|
-----0--2-------0--2----|----------------------|
-------------0----------|------------2---------|
------------------------|--3--------------3----|
--3---------------------|-------3--------------|




Candy man been here and gone
Candy man been here and gone
Candy man, salty dog
If you can't be my Candy man you can't be my salty dog

Candy man, candy man
Candy man, fattin hog
Candy man, Santa Claus
If you can't be my candy man, can't be my fattin hog

Candy man, candy man 
Candy man, been here and gone
Candy man, salty dog
I wish I was in New Orleans, sitting on the candy stand

Run get the pitcher, get the baby some beer (6X)
I'd give anything in this god almighty world
To get my Candy man home 

Candy man, salty dog
Candy man, fattin hog
Candy man, salty dog
If you can't be my Candy man
You can't be my man at all
Tap to rate this tab
# A B C D E F G H I J K L M N O P Q R S T U V W X Y Z