Song name
# A B C D E F G H I J K L M N O P Q R S T U V W X Y Z

Reverend Bizarre - Doom Over The World tab

Main riff
-----------------------------------------------------------------------------|
-----------------------------------------------------------------------------|
-----------------------------------------------------------------------------|
-----------------------------------------------------------------------------|
-9---9---9---9---9--5--4---7--7-7--9---9---9---9---9--12--12-12-11--11-12-11-|
-7-7-7-7-7-7-7-7-7--3--2---5--5-5--7-7-7-7-7-7-7-7-7--10--10-10--9--9--10-9--|

chorus
----------------------------------------------------------------------------|
----------------------------------------------------------------------------|
----------------------------------------------------------------------------|
----------------------------------------------------------------------------|
-9---9---9---9---9---9---9---9--12---12---12---12---12---12---12---12-------|
-7-7-7-7-7-7-7-7-7-7-7-7-7-7-7--10-10-10-10-10-10-10-10-10-10-10-10-10------|

----------------------------------------------------------------------------|
----------------------------------------------------------------------------|
----------------------------------------------------------------------------|
----------------------------------------------------------------------------|
11----11----11----11----10----10----10----10--9---9---9---9---9--999-101010-|
9-9-9-9-9-9-9-9-9-9-9-9--8-8-8-8-8-8-8-8-8-8--7-7-7-7-7-7-7-7-7-------------|

---------------|
---------------|
---------------|
---------------|
-777--999------|
---------------|

melody/solo thing
----------------------------------------------------------------------------|
----------------------------------------------------------------------------|
-------------------------------------------------------12-1212--11--111211--|
9--9-99-9--99-9--12-1212--11--111211--9--9-99-9--99-9-----------------------|
----------------------------------------------------------------------------|
----------------------------------------------------------------------------|

----------------------------------------------------------------------------|
----------------------------------------------------------------------------|
------------------12-12--11h12p11-9-9-7h9p7--6h7p6--4h6p4-------------------|
9--9-99-9--99-9--------------------------------------------9--9-99-9--99-9--|
----------------------------------------------------------------------------|
----------------------------------------------------------------------------|

------------------------|
------------------------|
------------------------|
------------------------|
-999-101010-777-999-----|
------------------------|
Tap to rate this tab
# A B C D E F G H I J K L M N O P Q R S T U V W X Y Z