Song name
# A B C D E F G H I J K L M N O P Q R S T U V W X Y Z

Revoker - The Great Pretender tab

The Great Pretender By Revoker
Tuning is Drop C

C,G,C,F,A,D

e|---------------------------------------------------------------------------------|
B|---------------------------------------------------------------------------------|
G|---------------------------------------------------------------------------------|
D|---------------------------------------------------------------------------------|
A|6-5-------------------6-5-----------5-8-6-5---------------------6-5--------------|
E|---0-0-0-0-5-6-0-0-0-0----0-0-0-5-6---------0-0-0-0-5-6-0-0-0-0-----0-0-3-| /--15|

e|--------------------------------------------------------------------------------|
B|--------------------------------------------------------------------------------|
G|--------------------------------------------------------------------------------|
D|6-5-0-0-0-0-3-5-3-5-3-5-6-5-0-0-0-0-3-5-3-3-6-5-0-0-0-0-3-5-3-5-3-5-6-5---------|
A|6-5-0-0-0-0-3-5-3-5-3-5-6-5-0-0-0-0-3-5-3-3-6-5-0-0-0-0-3-5-3-5-3-5-6-5---------|
E|6-5-0-0-0-0-3-5-3-5-3-5-6-5-0-0-0-0-3-5-3-3-6-5-0-0-0-0-3-5-3-5-3-5-6-5-3-| /-15|

e|---------------------------------------------------------------------------------|
B|---------------------------------------------------------------------------------|
G|---------------------------------------------------------------------------------|
D|---------------------------------------------------------------------------------|
A|6-5-------------------6-5-----------5-8-6-5---------------------6-5--------------|
E|---0-0-0-0-5-6-0-0-0-0----0-0-0-5-6---------0-0-0-0-5-6-0-0-0-0-----0-0-3-| /--15|

e|------------------------------------------------------------------------------------|
B|------------------------------------------------------------------------------------|
G|------------------------------------------------------------------------------------|
D|--------------------------------------------------------------------3-0-3-5---------|
A|6-5-------------------6-5-----------5-8-6-5---------------------6-5-3-0-3-5---------|
E|---0-0-0-0-5-6-0-0-0-0----0-0-0-5-6---------0-0-0-0-5-6-0-0-0-0-----3-0-3-5---------|

e|------------------------------------------------------------------------------------------------|
B|------------------------------------------------------------------------------------------------|
G|---------------------------------------------------8--------------------------------------------|
D|-3-0-3-0-5-6-5-6-0-3-5-3-5-3-0-3-0-5-6-5-6-0-3-5-3-8-3-0-3-0-5-6-5-6-0-3-5-3-5-3-0-3-0-5-| /-0--|
A|-3-0-3-0-5-6-5-6-0-3-5-3-5-3-0-3-0-5-6-5-6-0-3-5-3-6-3-0-3-0-5-6-5-6-0-3-5-3-5-3-0-3-0-5-| /-0--|
E|-3-0-3-0-5-6-5-6-0-3-5-3-5-3-0-3-0-5-6-5-6-0-3-5-3---3-0-3-0-5-6-5-6-0-3-5-3-5-3-0-3-0-5-| /-0--|

e|--------------------------------------------------------------------------------|
B|--------------------------------------------------------------------------------|
G|--------------------------------------------------------------------------------|
D|6-5-0-0-0-0-3-5-3-5-3-5-6-5-0-0-0-0-3-5-3-3-6-5-0-0-0-0-3-5-3-5-3-5-6-5---------|
A|6-5-0-0-0-0-3-5-3-5-3-5-6-5-0-0-0-0-3-5-3-3-6-5-0-0-0-0-3-5-3-5-3-5-6-5---------|
E|6-5-0-0-0-0-3-5-3-5-3-5-6-5-0-0-0-0-3-5-3-3-6-5-0-0-0-0-3-5-3-5-3-5-6-5-3-| /-15|


e|---------------------------------------------------------------------------------|
B|---------------------------------------------------------------------------------|
G|---------------------------------------------------------------------------------|
D|---------------------------------------------------------------------------------|
A|6-5-------------------6-5-----------5-8-6-5---------------------6-5--------------|
E|---0-0-0-0-5-6-0-0-0-0----0-0-0-5-6---------0-0-0-0-5-6-0-0-0-0-----0-0-3-| /--15|

e|------------------------------------------------------------------------------------|
B|------------------------------------------------------------------------------------|
G|------------------------------------------------------------------------------------|
D|--------------------------------------------------------------------3-0-3-5---------|
A|6-5-------------------6-5-----------5-8-6-5---------------------6-5-3-0-3-5---------|
E|---0-0-0-0-5-6-0-0-0-0----0-0-0-5-6---------0-0-0-0-5-6-0-0-0-0-----3-0-3-5---------|

e|------------------------------------------------------------------------------------------------|
B|------------------------------------------------------------------------------------------------|
G|---------------------------------------------------8--------------------------------------------|
D|-3-0-3-0-5-6-5-6-0-3-5-3-5-3-0-3-0-5-6-5-6-0-3-5-3-8-3-0-3-0-5-6-5-6-0-3-5-3-5-3-0-3-0-5-| /-0--|
A|-3-0-3-0-5-6-5-6-0-3-5-3-5-3-0-3-0-5-6-5-6-0-3-5-3-6-3-0-3-0-5-6-5-6-0-3-5-3-5-3-0-3-0-5-| /-0--|
E|-3-0-3-0-5-6-5-6-0-3-5-3-5-3-0-3-0-5-6-5-6-0-3-5-3---3-0-3-0-5-6-5-6-0-3-5-3-5-3-0-3-0-5-| /-0--|



e|------------------------------------------------------------------------------------|
B|------------------------------------------------------------------------------------|
G|------------------------------------------------------------------------------------|
D|6-5-0-0-0-0-3-5-3-5-3-5-6-5-0-0-0-0-3-5-3-3-6-5-0-0-0-0-3-5-3-5-3-5-6-5-3-0-3-5-----|
A|6-5-0-0-0-0-3-5-3-5-3-5-6-5-0-0-0-0-3-5-3-3-6-5-0-0-0-0-3-5-3-5-3-5-6-5-3-0-3-5-----|
E|6-5-0-0-0-0-3-5-3-5-3-5-6-5-0-0-0-0-3-5-3-3-6-5-0-0-0-0-3-5-3-5-3-5-6-5-3-0-3-5-----|


e|---------------------------------------------------------------------------|
B|---------------------------------------------------------------------------|
G|---------------------------------------------------------------------------|
D|-3-0-6-0-3-5-3-5-3-0-6-0-3-5-3---------------------------------------------|
A|-3-0-6-0-3-5-3-5-3-0-6-0-3-5-3---------------------------------------------|
E|-3-0-6-0-3-5-3-5-3-0-6-0-3-5-3-| /-15--------------------------------------| Play This Four Times

e|--------------------------------------------------------------------------------------|
B|--------------------------------------------------------------------------------------|
G|--------------------------------------------------------------------------------------|
D|6-5-0-0-0-0-3-5-3-5-3-5-6-5-0-0-0-0-3-5-3-3-6-5-0-0-0-0-3-5-3-5-3-5-6-5-3-0-3-5-000000|
A|6-5-0-0-0-0-3-5-3-5-3-5-6-5-0-0-0-0-3-5-3-3-6-5-0-0-0-0-3-5-3-5-3-5-6-5-3-0-3-5-000000|
E|6-5-0-0-0-0-3-5-3-5-3-5-6-5-0-0-0-0-3-5-3-3-6-5-0-0-0-0-3-5-3-5-3-5-6-5-3-0-3-5-000000|



e|-----------------------------------------------------------------------------|
B|-----------------------------------------------------------------------------|
G|-----------------------------------------------------------------------------|
D|-----------------------------------------------------------------------------|
A|-----------------------------------------------------------------------------|
E|0x0x0x0x0x0p-0-0-0-0-0x0x0x0x0x0p-0-0-0-0-3 pinch harmonic ------------------|
Play this Six Times and Slide to 0 on the Last one

e|--------------------------------------------------------------------------------|
B|--------------------------------------------------------------------------------|
G|--------------------------------------------------------------------------------|
D|6-5-0-0-0-0-3-5-3-5-3-5-6-5-0-0-0-0-3-5-3-3-6-5-0-0-0-0-3-5-3-5-3-5-6-5---------|
A|6-5-0-0-0-0-3-5-3-5-3-5-6-5-0-0-0-0-3-5-3-3-6-5-0-0-0-0-3-5-3-5-3-5-6-5---------|
E|6-5-0-0-0-0-3-5-3-5-3-5-6-5-0-0-0-0-3-5-3-3-6-5-0-0-0-0-3-5-3-5-3-5-6-5-3-| /-15|

e|------------------------------------------------------------------------------------|
B|------------------------------------------------------------------------------------|
G|------------------------------------------------------------------------------------|
D|6-5-0-0-0-0-3-5-3-5-3-5-6-5-0-0-0-0-3-5-3-3-6-5-0-0-0-0-3-5-3-5-3-5-6-5-0-3-0-3-0-5-|
A|6-5-0-0-0-0-3-5-3-5-3-5-6-5-0-0-0-0-3-5-3-3-6-5-0-0-0-0-3-5-3-5-3-5-6-5-0-3-0-3-0-5-|
E|6-5-0-0-0-0-3-5-3-5-3-5-6-5-0-0-0-0-3-5-3-3-6-5-0-0-0-0-3-5-3-5-3-5-6-5-0-3-0-3-0-5-|


e|------------------------------------------------------------------------------------------------|
B|------------------------------------------------------------------------------------------------|
G|---------------------------------------------------8--------------------------------------------|
D|-3-0-3-0-5-6-5-6-0-3-5-3-5-3-0-3-0-5-6-5-6-0-3-5-3-8-3-0-3-0-5-6-5-6-0-3-5-3-5-3-0-3-0-5-| /-0--|
A|-3-0-3-0-5-6-5-6-0-3-5-3-5-3-0-3-0-5-6-5-6-0-3-5-3-6-3-0-3-0-5-6-5-6-0-3-5-3-5-3-0-3-0-5-| /-0--|
E|-3-0-3-0-5-6-5-6-0-3-5-3-5-3-0-3-0-5-6-5-6-0-3-5-3---3-0-3-0-5-6-5-6-0-3-5-3-5-3-0-3-0-5-| /-0--|
Tap to rate this tab
# A B C D E F G H I J K L M N O P Q R S T U V W X Y Z