Song name
# A B C D E F G H I J K L M N O P Q R S T U V W X Y Z

Rey Fresco - On The Radio tab

			     On The Radio- Rey Fresco

Tabbed by:jahbrudda
Email:saticoyllnolanb@yahoo.com

Tuning:standard

e|-----------------------------------------------------|
B|-----------------------------------------------------|
G|-----------------------------------------------------| (x5)         intro
D|-----------------------------------------------------|
A|------5h6-5/3---------------5h6-5/3------------------|
E|--7-7---------0-2-5-2-5/7-7---------0-2-5-7-7--------|

e|  --  7-----5---------|
B|  --  7-----5---------|
G|  -- 8-----6----------|  verse;
D|  -- 9-----7----------|
A|  -- 9-----7----------|
E|7 7-7-----5-----------|

for the strum pattern its pretty easy to pick up by listening to the recording, but if 
its an ok song to just use your own cool or fun strum or just make up a new one, have fun 
it.

e|-7--5--6---------------|
B|-9--7--8---------------|
G|-9--7--8---------------|    Chorus 1
D|-9--7--8---------------|
A|-7--5--6---------------|
E|-----------------------|

This is how the lead guitar plays the chorus but while singing Roger strums a basic E at 
top of the neck and then strums a basic D shape so, either works while playing it

verse

e|-7--5--6-------4--5--7-------------------------|
B|-9--7--8-------5--5--9-------------------------|
G|-9--7--8--(x3)--6--6--9--(x4)------------------|
D|-9--7--8-------6--7--9-------------   Chorus 2-|
A|-7--5--6-------4--7--7-------------------------|
E|------------------5----------------------------|

Intro  (x2)
verse

e|-4--5--7---------5-5--7-------------|
B|-5--5--9---------5-5--9-------------|
G|-6--6--9---(x4)---6-6--9------------|      Ending
D|-6--7--9---------7-7--9-------------|
A|-4--7--7---------7-7--7-------------|
E|----5------------5-5----------------|

http://www.reyfresco.com/
Tap to rate this tab
 
# A B C D E F G H I J K L M N O P Q R S T U V W X Y Z