Song name
# A B C D E F G H I J K L M N O P Q R S T U V W X Y Z

Reyli - Amor Del Bueno tab

C             Cmin7
e|------------------------------------------------------|
b|------------------------------1----3------------------|
g|-----------0-----------------------------0------------|
D|------2---------2-------------------------------2-----|
A|---3--------------------------------------------------|
E|------------------------------------------------------|

                  Dm            Dmin7
e|------------------------------1----0------------------|
b|----------------3----------------------3--------------|
g|----------2---------2-----------------------2---------|
D|----0-------------------------------------------------|
A|------------------------------------------------------|
E|------------------------------------------------------|


                   F
e|------------------------------------------------------|
b|----------------------------1-------------------------|
g|---------------2-----------------2--------------------|
D|---------3---------3------------------3---------------|
A|------------------------------------------------------|
E|----1-------------------------------------------------|


                   C             Cmin7
e|------------------------------------------------------|
b|-------------------------------1----3-----------------|
g|----------------0------------------------0------------|
D|----------2----------2--------------------------2-----|
A|-----3------------------------------------------------|
E|------------------------------------------------------|


Intro:  Arpegio


        C     Cmin7
Como un cuchillo
        Dm    Dmin7
en la mantequilla
        F
entraste a mi vida
        C
cuando me moria.


        C     Cmin7
Como la luna
        Dm    Dmin7
por la rendija
        F
asi te metiste
        C
entre mis pupilas.


**** Estribillo ****


     Am
Y asi te fui queriendo a diario
        F                     C/Cmin7    G
sin una ley, sin un horario   uuuh  uh  uuuh
     Am
y asi me fuiste despertando
          F                   C/Cmin7    G
de cada sueño, donde estabas  tuuu uh  uuuh.


(Rasgueo)


    C            Cmin7
Y nadie lo buscaba
    Dm         Dmin7
y nadie lo planeo asi
      Fmaj7
en el destino estaba
               C
que fueras para mi.


    C            Cmin7
Y nadie le apostaba
    Dm         Dmin7
a que yo fuera tan feliz
       Fmaj7              C
pero cupido se apiado de mi.


     C	         Dm           F	               C/Cmin7
Sumbari nooo , sumbari   hey eheh se apiado de mi ...
     C	         Dm               F                          C/Cmin7
Uhh uh uhhh , mbari no,   birino, birirbiribire se apiado de mi ...


Como la lluvia
en pleno desierto
mojaste de fe mi corazon
ahogaste mis miedos.

Como una dulce voz
en el silencio
asi nos llego el amor
amor del bueno.

                E  A  D  g  b  e


Cmin7           *  3  2  0  3  0

Dmin7           *  *  0  2  3  0

Fmaj7           *  3  3  2  1  0
Tap to rate this tab
# A B C D E F G H I J K L M N O P Q R S T U V W X Y Z