Song name
# A B C D E F G H I J K L M N O P Q R S T U V W X Y Z

Richard Bona - Sweet Mary chords

Highlighted       Show chord diagrams
-------------------------------------------------------------------------------
			     Sweet Mary - Richard Bona
-------------------------------------------------------------------------------
Tabbed by:Jeff Kamungu
Email:geoffykom@yahoo.com

Tuning:standard

    E            G#m7      Gm7(alt)     F#m7        B9*
e|---0------|-----------|---------|-------0----|----4---2------|
B|---0------|----4------|--4------|----2----2--|----2----------|
G|---1------|----4------|--3------|----2-------|----2----------|
D|---2------|----4------|--3------|----2-------|---------------|
A|----------|-----------|---------|------------|-2-------------|
E|-0--------|-4---------|---------|-2----------|---------------|

much of the song is played like above. Realy nice jazzy piece.


Bridge: A  F#m7   A      F#m7   G#m7   C#m7  F#m7-G-G#(alt) A/B then Alt..


http://www.youtube.com/watch?v=-Cibw8TUlD0
Tap to rate this tab
# A B C D E F G H I J K L M N O P Q R S T U V W X Y Z