Song name
# A B C D E F G H I J K L M N O P Q R S T U V W X Y Z

Richard Sanderson - Reality tab

-------------------------------------------------------------------------------
			     Reality - Richard Sanderson
-------------------------------------------------------------------------------

http://www.richard-sanderson.com/

Tabbed by: Martin Höller
Email: martin.hoeller@inode.at

Tuning: standard tuning

e|-----------10-------------------12-10--------------------12-10-------------|
B|-/12~~~-/12---12b13r12----12~~~-------12-10----10-11/12--------12-11-10----|
G|-----------------------12-----------------------------------------------12-|
D|--------------------------------------------12-----------------------------|
A|---------------------------------------------------------------------------|
E|---------------------------------------------------------------------------|

e|---------------------------------------------------------------------------|
B|-10----11b12-11b12---------------------------------------------------------|
G|----12-------------12-9\---------------------------------------------------|
D|---------------------------------------------------------------------------|
A|---------------------------------------------------------------------------|
E|---------------------------------------------------------------------------|

e|--------------------------------------------------------------17b19~~~~r17-|
B|-----------------------------------------15----15-17b18r17-15--------------|
G|-----12----14b15-12~~-12-12/14~~~--15/16----16-----------------------------|
D|-/14----14-----------------------------------------------------------------|
A|---------------------------------------------------------------------------|
E|---------------------------------------------------------------------------|

e|-17-15----17b18-----------10-12-10-----------------------------------------|
B|-------15-------17-17~~-----------12-11-10----10-11b12-11b12r11------------|
G|-------------------------------------------12-------------------12-12~~~~--|
D|---------------------------------------------------------------------------|
A|---------------------------------------------------------------------------|
E|---------------------------------------------------------------------------|
Tap to rate this tab
 
# A B C D E F G H I J K L M N O P Q R S T U V W X Y Z