Song name
# A B C D E F G H I J K L M N O P Q R S T U V W X Y Z

Richard Zachary - ?crevise tab

Intro
e-----------------------------------------------------------------
b----5------3-----0----3-----0------------------------------------
g----------------------------------2------------------------------
d------------------------------------------0----------------------
a-----------------------------------------------------------------
E-----------------------------------------------------------------

*Preverse*
e--------------------------------------------------------
b--------------------------------------------------------
g--------------------------------------------------------
d--2-2---4---2---4-----2-2---4---2---4----2-2---4--2---4- Go to Intro
a--2-2---4---2---4-----2-2---4---2---4----2-2---4--2---4-
E--0-0---0---0---0-----0-0---0---0---0----0-0---0--0---0-

*Used for all verses*
e-------------------------------------------------------------------------
b-------------------------------------------------------------------------
g-------------------------------------------------------------------------
d--2-2---4---2---4-----2-2---4---2---4----2-2---4--2---4----2-2---4--2---4 
a -2-2---4---2---4-----2-2---4---2---4----2-2---4--2---4----2-2---4--2---4
E--0-0---0---0---0-----0-0---0---0---0----0-0---0--0---0----0-0---0--0---0


Crawfish!
e---0-0-0-0--------------------------------------------------
b---5-5-5-5--------------------------------------------------

*Chorus*
e-------------------------
b-------------------------
g-------------------------
d--2-2---4---2-2---4-----2
a -2-2---4---2-2---4-----2
E--0-0---0---0-0---0-----0
..J'a ici en vie........

Crawfish!
e---0-0-0-0--------------------------------------------------
b---5-5-5-5--------------------------------------------------

e------------------------------------------------------------
b------------------------------------------------------------
g------------------------------------------------------------
d-2-2---4--2-2---4--------------------------------------------------
a-2-2---4--2-2---4-----------------------------------------------
E-0-0---0--0-0---0-------------------------------------------------
...Manger quand c'est chaud...

Crawfish!
e---0-0-0-0--------------------------------------------------
b---5-5-5-5--------------------------------------------------

e------------------------------------------------------------------
b------------------------------------------------------------------
g--2-2---4---2-2---4-----------------------------------------------
d--2-2---4---2-2---4-----------------------------------------------
a--0-0---0---0-0---0-----------------------------------------------
E------------------------------------------------------------------
...Faire un grand bouill?..

Crawfish!
e---0-0-0-0--------------------------------------------------------
b---5-5-5-5--------------------------------------------------------

e------------------------------------------------------------------
b------------------------------------------------------------------
g------------------------------------------------------------------
d--2--2----4---2--2----4-------------------------------------------
a--2--2----4---2--2----4-------------------------------------------
E--0--0----0---0--0----0-------------------------------------------
...mmm ?a c'est bon

e--2-----2-----------------------------------------------------
b--0-----0-----------------------------------------------------
g--2-----2-----------------------------------------------------
d--1-----1-----------------------------------------------------
a--2-----2-----------------------------------------------------
E------------------------------------------------------------
*deux grand pinces..Petit queue quand c'est chaud babe rien c'est mieux que..

Crawfish!
e---0-0-0-0--------------------------------------------------
b---5-5-5-5--------------------------------------------------
                             (Play B7 up and down)
e---------------------------2---------------------------------
b---------------------------0---------------------------------
g---------------------------2---------------------------------
d--2-2---4---2-2---4---2----1----------------------------------------
a--2-2---4---2-2---4---2----2----------------------------------------
E--0-0---0---0-0---0---0--------------------------------------------

(Back to verse)
Tap to rate this tab
# A B C D E F G H I J K L M N O P Q R S T U V W X Y Z