Song name
# A B C D E F G H I J K L M N O P Q R S T U V W X Y Z

Richie Kotzen - Go Faster tab

SONG:		Richie Kotzen - Go Faster
ALBUM:		The Return Of The Mothers Head's Family Reunion
EMAIL:		mikeluard@hotmail.com
DATE TABBED:	9th Jan '08


  INTRO/VERSE:

e ----------6---------6-6----------6---------------------------------------|
B ----------6---------6-6----------6---------------------------------------|
G ----------3---------3-3----------3---------------3-----------------------|
D --3-4-5---3--3--5---3-3--3-4-5---3--3-5--------3-------------------------|
A --------------------------------------------/5---------------------------|
E --------3---------3------------3--------3--------------------------------|


  'You can't slow me down...
e -------------------------------------------------------------------------|
B -------------------------------------------------------------------------|
G --8-8-----10-10-----13---------------10----------------------------------|
D --8-8-8---10-10-10--13-13----8---8---10----------------------------------|
A --6-6-8---8--8--10--11-13----8---8---8-----------------------------------|
E ------6---------8------11----6---6---------------------------------------|

  CHORUS:				 *Fsus4
e -------------------------------------------------------------------------|
B ---------------------------------------11-11-----------------------------|
G --------3-0--10-10------8-8------10-10-10-10-----------------------------|
D -------------10-10-10---8-8-8-8--10-10-10-10-----------------------------|
A -------------8--8--10---6-6-8-8--8--8--8--8------------------------------|
E --1-3-1------------8--------6-6------------------------------------------|
  *The last 2 chords strums are only sometimes played  

  + Verse & Chorus again

  
  INTO SOLO:
e -------------------------------------------------------------------------|
B -------------------------------------------------------------------------|
G -------------------------------------------------------------------------|
D --5-3---------5-3---------5-3-----5-3----------3--3-3--3-3---8-9-10------|
A ------5-3---------5-3---------5-3-----5-3------3--3-3--3-3---8-9-10------|
E ----------6-3---------6-3-----------------6-3--1--1-1--1-1---------------|

  Solo is way to fast for me to work out but I know he uses the Gminor
  pentatonic scale to base the solo off - try and improvise I guess

  + Chorus

  OUTRO: 
e -----------------------------------------------------------6-------------|
B -----------------------------------------------------------6-------------|
G --8-8------10-10-----13-----------------10-10-10-10----------------------|
D --8-8-8-8--10-10-10--13-13---8-8-8-8-8--10-10-10-10-----------5----------|
A --6-6-8-8--8--8--10--11-13---8-8-8-8-8--8--8--8--8-----------------------|
E ------6-6--------8------11---6-6-6-6-6---------------1-3-1---------------|

 
Tap to rate this tab
# A B C D E F G H I J K L M N O P Q R S T U V W X Y Z