Song name
# A B C D E F G H I J K L M N O P Q R S T U V W X Y Z

Richie Lionel - Endless Love tab

Help us improve GuitareTab! Take a short survey!
                               ENDLESS LOVE
                           -------------------
                        Lionel Richie & Diana Ross

Great song, very emotive. I found it because of this Friends episode
(fans should know what im talking about) where Janice and Chandler broke 
because of Janice's husband. Chandler sings it at the credits in the end 
and Phoebe joins him. It was very sad, but with Chandler there it was kinda 
funny :) haha. Well here it is. Any Q,C&C* are welcome.

*Questions, Comments & Complaints

By the way, this tab is for a classical, solo guitar and in a Standard 
Tuning.

Moderately Slow = 87
 4/4
                                                                |--3--|
   E E E E E E E E   E E E E E E E E   E E E Q  E E E   E E E E Q  Q  Q
e|-----------------|-0---------------|----------------|---------------0-|
B|-2-----0-----0---|-------2-----0---|-2-----2--------|---------2--3--2-|
G|-----2-----2-----|-----2-----2-----|-----2-2----2---|-----2---2--4----|
D|---2-----2-----2-|---2-----2-----2-|---2------2---2-|---2---2---------|
A|-0---------------|-0---------------|-0--------------|-0---------------|
E|-----------------|-----------------|----------------|-----------------|

   Q.  S S E E E E   E  E E  E Q  Q    E  Q  Q  E E E   E E E E E E E E
e|-0---------------|-----------------|----0-----------|-----------------|
B|-2---3p2-3-------|---------0-0--0--|-0--0--2--------|-------2-----0---|
G|-----------2---2-|------2--1-1--1--|-1-----2----2---|-----2---------2-|
D|-0-----------4---|----0------------|----------2---2-|---2-------2-----|
A|-----------------|-----------------|----------------|-0---------------|
E|-----------------|-0---------------|----------------|---------4-------|

                            |--3--|
   E E E Q  E E E   E E E E Q  Q  Q    Q.  S S E E E E   E  E E E Q  Q
e|-------2--------|---------------0--|-0---------------|----------------|
B|-----3------3---|---------2--3--2--|-2---3p2-3-------|--------0-0--0--|
G|---2------2---2-|-----2---2--4-----|-----------2---2-|------2-1-1--1--|
D|-0--------------|---2---2----------|-0-----------4---|----0-----------|
A|----------------|-0----------------|-----------------|----------------|
E|----------------|------------------|-----------------|-0--------------|

                                                               |--3--|
   E  Q  Q  E E E   E E E E E E E E   E E E Q  E E E   E E E E Q  Q  Q
e|----0-----------|-----------------|-------2--------|---------4--5--7--|
B|-0--0--2--------|-------2-----0---|-----3------3---|-----0---0--2--3--|
G|-1-----2----2---|-----2---------2-|---2------2---3-|---1---1----------|
D|----------2---2-|---2-------2-----|-0--------------|------------------|
A|----------------|-0---------------|----------------|------------------|
E|----------------|---------4-------|----------------|-0----------------|

   E E E E E Q  E   E E E E E Q S S   E E E Q  E E E   Q  E E Q.  S S
e|-----------4--7-|-5---------4-7p5-|-2-----2--------|----4p5-7---4p2-|
B|-----------0--5-|-2---2-----0-----|-----3------3---|----------------|
G|-----2----------|---2---2---------|-2-2------2---2-|----------------|
D|---2---2--------|-----------------|-0--------------|----------------|
A|-0--------------|-----------------|----------------|----------------|
E|---------0------|-2-------0-------|----------------|-0--------------|

                                                              |--3--|
   E E E Q  E E E   E E E Q  E E E   E E E Q  E E E   E E E E Q  Q  Q
e|-0-----0--------|-------0----5-2-|-------2--------|---------4--5--7--|
B|-----2------2---|-----2----------|-----3------3---|-----0-3-0--2--3--|
G|---2------2---2-|---1------2-----|---2------2---2-|---1--------------|
D|----------------|----------------|-0--------------|------------------|
A|-0--------------|-0--------------|----------------|------------------|
E|----------------|----------------|----------------|-0----------------|

   E E E Q  E E E   E E E E E E E E   E E E Q  E E S S   E E E Q  E E E
e|-7---0-9--9-5-0-|---0-5-0---7-5-4-|-2-----2------4h5-|-4---0-4----0-5-|
B|-3-3---5--5-----|-----------------|-----3------3-----|---2------2-----|
G|----------------|-----------------|---2------2-------|----------------|
D|----------------|-----------------|-0----------------|----------------|
A|-0--------------|-0---------------|------------------|-4--------------|
E|----------------|---------0-------|------------------|----------------|

   E E E Q  E E E   Q  Q  Q.  E   E E E Q  E E E   E E E Q  E E E
e|-5-----5--------|----5--5---5-|-5---0-5----0---|-----0-5----0---|
B|---0-3----0-3-0-|----0--3-----|-5-2------2---2-|---2------2---2-|
G|----------------|----7--------|-6--------------|----------------|
D|----------------|-------------|----------------|----------------|
A|-2--------------|-------------|-0--------------|-0--------------|
E|----------------|-0-----------|----------------|----------------|

                            |--3--|
   E E E Q  E E E   E E E E Q  Q  Q    Q.  S S E E E E   E E E E Q  Q
e|-0-----0--------|---------0--2--5--|-5---2---2-------|---------------|
B|-2-----2--------|---------2--3--5--|-5---3p2-3---3---|-------3-3--3--|
G|-----2------2---|-----2------------|-----------2---3-|-----2-4-4--4--|
D|---2------2---2-|---2---2----------|-----------------|---0-----------|
A|-0--------------|-0----------------|-----------------|---------------|
E|----------------|------------------|-----------------|-0-------------|

                                                             |--3--|
   E Q  Q  E E E   E E E Q  E E E   E E E Q  E E E   E E E E Q  Q  Q
e|---2--0--------|------------5-2-|---0---0--------|---------0--2--5--|
B|-3-3--2--------|-------2--------|-----2------2---|-----2---2--3--5--|
G|-4---------2---|-----2----2-----|---2------2---2-|---2---2----------|
D|---------2---2-|---2------------|----------------|------------------|
A|-0-------------|-0--------------|-0--------------|-0----------------|
E|---------------|----------------|----------------|------------------|

   Q.  S S E E E E   E E E E E Q  E   E Q  Q  E E E   E E E E E E E E
e|-5---2---2-------|----------------|---2--0--------|---------------5-|
B|-5---3p2-3---3---|-------0-3-3--3-|-3-3--2--------|-------2-----0---|
G|-----------2---2-|-----2---4-4--4-|-4---------2---|-----2-----------|
D|-0---------------|---0------------|---------2---2-|---2-------2-----|
A|-----------------|----------------|-0-------------|-0---------------|
E|-----------------|-0--------------|---------------|---------4-------|

                            |--3--|
   E E E Q  E E E   E E E E Q  Q  Q    E E E E E Q.    E E E E E Q  S S
e|-------2--------|---------4--5--7--|-0---------7---|-5---------4--5p4-|
B|-----3------3---|-----0---0--2--3--|-2---------5---|-2---2-----0------|
G|---2------2---2-|---1---1----------|-----2---------|---2---2----------|
D|-0--------------|------------------|---2---2-------|------------------|
A|----------------|------------------|-0-------------|------------------|
E|----------------|-0----------------|---------0-----|-2-------0--------|

   E E E Q  E E E   Q  E E Q.  S S   E E E Q  E E E   E E E Q  Q  E
e|-2-----2--------|----4p5-7---4p2-|-0-----0--------|-------0--5-p2-|
B|-----3------3---|----------------|-----2------2---|-----2---------|
G|-2-2------2---2-|----------------|---2------2---2-|---1-----------|
D|-0--------------|----------------|----------------|---------------|
A|----------------|----------------|-0--------------|-0-------------|
E|----------------|-0--------------|----------------|---------------|

                            |--3--|
   E E E Q  E E E   E E E E Q  Q  Q    E E E Q  E E E   E E E E E Q  E
e|-2-----2--0-----|-------0-4--5--7--|-7---0-9--9-5-0-|---0-5-0---7-p5-|
B|-----3------3-2-|-0---0---0--2--3--|-5-3---5--5-----|----------------|
G|---2------------|---1--------------|----------------|----------------|
D|-0--------------|------------------|----------------|----------------|
A|----------------|------------------|-0--------------|-0--------------|
E|----------------|-0----------------|----------------|---------0------|

   E E E Q  E E S S   E E E Q  E E E   E E E Q  E E E   Q  Q  Q.  E
e|-5---2-5----2-4p5-|-4---0-4----0-5-|-5-----5--------|----5--5---5-|
B|---3------3-------|---2------2-----|---0-3----0-3-0-|----0--3-----|
G|------------------|----------------|----------------|----7--------|
D|-0----------------|----------------|----------------|-------------|
A|------------------|-4--------------|-2--------------|-------------|
E|------------------|----------------|----------------|-0-----------|

                            |--3--|
   E E E Q  E E E   E E E E Q  Q  Q    Q.  S S E E E E   E E E E Q  Q
e|-5---0-5----0---|---------0--2--4--|-0---------------|---------------|
B|-5-2------2---0-|-----2---2--3--5--|-----3p2-3-------|-------0-0--0--|
G|-6--------------|---2---2----------|-----------2---2-|-----2---------|
D|----------------|------------------|-0-----------4---|---0-----------|
A|-0--------------|-0----------------|-----------------|---------------|
E|----------------|------------------|-----------------|-0-------------|

                                                              |--3--|
   E Q  Q  E E E   E E E Q  E E E    E E E Q  E E E   E E E E Q  Q  Q
e|---0-----------|-----------------|-0-----0--------|---------0--2--5--|
B|-0----2--------|-------2---------|----------------|---------2--0-----|
G|-----------2---|-----2------2----|-----2-2----2---|-----2---------2--|
D|---------2---2-|---2------2---2--|-2-2------2---2-|---2---2----------|
A|-0-------------|-0---------------|-0--------------|-0----------------|
E|---------------|-----------------|----------------|------------------|

   Q.  S S E E E E   E E E E Q  Q    E Q  Q  E E E   E E E E E E E E
e|-5---2p0-2-------|---------------|---2--0--------|---0-2-5-7-5-9-5-|
B|-0---------3---3-|-------3-3--3--|-3-0-----------|-----------------|
G|-------------2---|-----2-1-1--1--|-1----2----2---|-----------------|
D|-0---------------|---0-----------|---------2---2-|-----------------|
A|-----------------|---------------|-0-------------|-0---------------|
E|-----------------|-0-------------|---------------|-----------------|

                            |--3--|
   E E E Q  E E E   E E E E Q  Q  Q    E E E E E Q.    E E E E E Q  S S
e|-7-5-2-5----2---|---------4--5--7--|-0---------7---|-5---------4--5p4-|
B|---3------3---3-|---0-3-0-0--2--3--|-2---------5---|-3---2-----0------|
G|----------------|------------------|-----2---------|---2---2----------|
D|-0--------------|------------------|---2---2-------|------------------|
A|----------------|------------------|-0-------------|------------------|
E|----------------|-0----------------|---------4-----|-0-------0--------|

                                                      |--3--|  |--3--|
   E E E Q  E E E   Q  E E Q.  S S   E E E Q  E E E   Q  Q  Q  Q  Q  Q
e|-2-----2--------|----4-5-7---4p2-|-0-----0--------|----------------0--|
B|-----3------3---|----0-2-3-------|-2---2------2---|-------0--2--3-----|
G|-2-2------2---3-|----------------|---2------2---2-|-1--2--------------|
D|-0--------------|----------------|----------------|-------------------|
A|----------------|----------------|-0--------------|-0--------0--0--0--|
E|----------------|-0--------------|----------------|-------------------|

                             |--3--|
   E E E E E E E E   E E E E Q  Q  Q    E E E Q  E E E   E E E E E E E E
e|-2-------2-0-----|-----4---4--5--7--|-7---0-9--9-5-0-|-----5---------5-|
B|-----3-------3-2-|-0-3---0-0--2--3--|-3-3---5--5-----|---2---2-----2---|
G|-2-2---2---------|------------------|----------------|-----------2-----|
D|-0---------------|------------------|----------------|-----------------|
A|-----------------|------------------|-0--------------|-----------------|
E|-----------------|-0----------------|----------------|-0-------0-------|

   E E E E E E E E   E E E E E E E E   E E E E E E E E   E E E E E E E E
e|-9---2---9-7-5-4-|-7---0---0---0-5-|-9---2-----9-7-5-|-7---0---0---0-5-|
B|-7-3---3---------|---2---2---2-----|-7-3---3---------|---2---2---2-----|
G|-7---------------|-----------------|-7---------------|-----------------|
D|-0---------------|-----------------|-0-------0-------|-----------------|
A|-----------------|-4---------------|-----------------|-4---------------|
E|-----------------|-----------------|-----------------|-----------------|

   E  E E E E  E E E   E  E E E E E E S S   E E S S E E E S S E
e|-10---2---10-9-7-5-|-10---0---0---0-5p7-|-7---7-9-7---2-7h9-7-|
B|-7--3---3----5-3-2-|-5--2---2---2-------|---3-----------------|
G|-7-----------------|--------------------|---------------------|
D|-0--------0--------|--------------------|---------------------|
A|-------------------|-4------------------|-0---------0---------|
E|-------------------|--------------------|---------------------|

                                          |--3--|
   Q  Q  Q.  E   E E E Q  E E E   E E E E Q  Q  Q    Q.  S S E E E E
e|----5--5---5-|-5---0-5----0---|---------0--2--4--|-0---------------|
B|----3--3-----|-5-2------2---2-|-----2---2--3--5--|-----3-2-3---3---|
G|----4--------|-6--------------|---2---2----------|-----------2---2-|
D|-------------|----------------|------------------|-0---------------|
A|-------------|-0--------------|-0----------------|-----------------|
E|-0-----------|----------------|------------------|-----------------|

   E E E E Q  Q    E Q  Q  E E E   W
e|---------------|-------------0-|-5^-------------|
B|-------0-0--0--|-0-2--2----2---|-5^-------------|
G|-----2-1-1--1--|-1-2--2--2-----|-6^-------------|
D|---0-----------|---------------|-7^-------------|
A|---------------|-0-------------|-0^-------------|
E|-0-------------|---------------|----------------|
Related for Endless Love tab