Song name
# A B C D E F G H I J K L M N O P Q R S T U V W X Y Z

Richy Nix - In My Head tab

If any one has any problems with the tab, just let me know.
ShortcutToLast@hotmail.com

Tuning : Half Step Down
Chords used in song ( All 8th Chords )

  C# D  E  B
e-----------------|
B-----------------|
G-6--7--9--4------|
D-----------------|
A-4--5--7--2------|
E ----------------|

For Exact Strumming Pattern Listen To Song :

Myspace.com/RichyNix

Or

http://www.youtube.com/watch?v=hKAp4Nu1GuY


Intro Chords During Piano

e------------------------|
B------------------------|
G-6--7--9--4--6--7--9----|
D------------------------|
A-4--5--7--2--4--5--7----|
E -----------------------|

Intro Chords Full Band

e---------------------------------------------|
B---------------------------------------------|
G-6-6-6--666--7-7-7--777 --9-9-9--999--4-4----|
D---------------------------------------------|
A-4-4-4--444--5-5-5--555--7-7-7--777 --2-2----|
E --------------------------------------------|

Verse

e---------------------------------------------------------|
B---------------------------------------------------------|
G--66--66--64----66--66--64---77--77--77---99--99--99-----|
D---------------------------------------------------------|   x3
A--44--44--42----44--44--42---55--55--55---77--77--77-----|
E --------------------------------------------------------|

Palm Muted

e---------------------------------------------------------|
B---------------------------------------------------------|
G--66--66--64----66--66--64---77--77--77---99--99--99-----|
D---------------------------------------------------------|   x1
A--44--44--42----44--44--42---55--55--55---77--77--77-----|
E --------------------------------------------------------|

Chorus

C# ,D ,E , B

2nd half of Chorus riff (Listen for it)
e-----------------|
B----10-10-9------|
G-----------------|
D-----------------|
A-----------------|
E ----------------|

Verse

e---------------------------------------------------------|
B---------------------------------------------------------|
G--66--66--64----66--66--64---77--77--77---99--99--99-----|
D---------------------------------------------------------|   x2
A--44--44--42----44--44--42---55--55--55---77--77--77-----|
E --------------------------------------------------------|

Palm Muted

e---------------------------------------------------------|
B---------------------------------------------------------|
G--66--66--64----66--66--64---77--77--77---99--99--99-----|
D---------------------------------------------------------|   x2
A--44--44--42----44--44--42---55--55--55---77--77--77-----|
E --------------------------------------------------------|

Chorus

C# ,D ,E , B

Breakdown
Chug C# till " Took my heart and I locked it up in a safe"

Then

C# , D , C# , E , D , C#  x2

Chorus

C# ,D ,E , B  x6

Solo/Riff
e----------------------------------------------------------|
B----------------------------------------------------------|
G--6-6h7-7-7h9-7-6----6----6-------------------------------|
D------------------9---7------7----------------------------|
A-----------------------------------5--5s7-7-5-4-2-4-0-----|
E ---------------------------------------------------------|


Outro

"You Have Everything That You Need It's In Your Arms, It's In Your Arms"
  C# D  E  B
e------------------|
B------------------|
G-6--7--9--4-------|
D------------------|  x4
A-4--5--7--2-------|
E -----------------|

e----|
B----|
G-6--|
D----|
A-4--|
E----|

Check Out My Band From Windsor Ontario
www.myspace.com/ShortcutToLast
Search for us on Facebook "Shortcut To Last"
Twitter.com/ShortcutToLast
Tap to rate this tab
 
# A B C D E F G H I J K L M N O P Q R S T U V W X Y Z