Richy Nix - Note To Self tab

Song: Note To Self
Band: Richy Nix
Tuning: Drop D
email: synystersixx@gmail.com

This is actually the keyboard part but it is quite fun to play on guitar. 
I split the intro into 4 separate but similar parts to make it easier to learn.


 E|-----4---6-4-7---6---4---6---7--|
 B|--4----4-------4---4---4---4----|
 G|--------------------------------|
 D|--------------------------------|
 A|--------------------------------|
 D|--------------------------------|  
 

 E|-----4---6-4-7---6---4---6---7--|
 B|--------------------------------|
 G|--6----6-------6---6---6---6----|
 D|--------------------------------|
 A|--------------------------------|
 D|--------------------------------|


 E|-----4---6-4-7---6---4---7-6-4--|
 B|--4----4-------4---4------------|
 G|--------------------------------|
 D|--------------------------------|
 A|--------------------------------|
 D|--------------------------------|


 E|-----4---6-4-7---6---4---9---6-9--|
 B|--4----4-------4---4---4----------|
 G|---------------------------8------|
 D|----------------------------------|
 A|----------------------------------|
 D|----------------------------------|
Tap to rate this tab
 
# A B C D E F G H I J K L M N O P Q R S T U V W X Y Z