Song name
# A B C D E F G H I J K L M N O P Q R S T U V W X Y Z

Rick Roberts - Deliver Me tab

Help us improve GuitareTab! Take a short survey!
here's the link to the band's website since this is apparently the first robert randolph
on here:  http://www.robertrandolph.net/


Part 1: this is repeated through the verses

e------------------------------------------------|
B------5---5---5-5---------5---5---5-5-----------|
G------5---5---5-5---------5---5---5-5-----------|
D----7---7---7-----7-----7---7---7-----7---------|
A------------------------------------------------|
E--5-------------------5-------------------------|

Part 2: played between verse and main chorus

e--------------------------------------------------------|
B--------------------------------5-----------------------|
G-----------------------5~~~--------8--7--5--------------|
D--------------------------------------------7-5---------|
A--------3--5--7--5-6-7--------------------------7-6~~~--|
E--3--5------------------------5-------------------------|

repeat this several times but end with

e---------------------------|
B----5----------------------|
G-------8--7--5-------------|
D----------------7-5--------|
A--------------------7~~----|
E--5------------------------|

Part 3: short bridge between part 2 and part 4 (main chorus)

e-----------------------------------------------------------------|
B-----------------------------------------------------------------|
G--5h7p5---------------------------------------------------5------|
D--------7--7p5h7p5--7p5h7p5--7p5h7p5--7p5h7p5--7p5h7p5--7---7p5--|
A-----------------------------------------------------------------|
E-----------------------------------------------------------------|

Part 4: main chorus, just repeat this

e------------------------|
B------------------------|
G------------------------|
D--7------5------3--2----|
A--7------5------3--2----|
E--5------3------1--0----|


after the first run through these parts they go back through a second time and start
in extra bass and guitar stuff over the basic part i've tabbed out.

then there's the little break without any guitar parts that i can hear, then back into
2 but with a ton of extra notes, then part 3 same deal and then it ends with robert
out over the chorus.  sweet.
Related for Deliver Me tab