Guitaretab - guitar tabs
Song name
# A B C D E F G H I J K L M N O P Q R S T U V W X Y Z

Ricky Martin - Cup Of Life tab

|-3/5-5/7-7/9-10-9-|
|-3/5-5/7-7/9-10-9-|
|-3/5-5/7-7/9-10-9-|
|------------------|
|------------------|
|------------------|

|-3/5-5/7-7/9-10-9-|
|-3/5-5/7-7/9-10-9-|
|-3/5-5/7-7/9-10-9-|
|------------------|
|------------------|
|------------------|
[ Tab from: http://www.guitaretab.com/r/ricky-martin/83949.html ]
|-8-8-8--9-10-11-10-9-10-|-8-8-8--5-6-7-6-5-6-|
|-8-8-8--9-10-11-10-9-10-|-8-8-8--5-6-7-6-5-6-|
|-8-8-8--9-10-11-10-9-10-|-8-8-8--5-6-7-6-5-6-|
|------------------------|--------------------|
|------------------------|--------------------|
|------------------------|--------------------|


|-8-8-8--9-10-11-10-9-10-|-8-8-8--5-6-7-6-5-6-|
|-8-8-8--9-10-11-10-9-10-|-8-8-8--5-6-7-6-5-6-|
|-8-8-8--9-10-11-10-9-10-|-8-8-8--5-6-7-6-5-6-|
|------------------------|--------------------|
|------------------------|--------------------|
|------------------------|--------------------|
Related for Cup Of Life tab