Guitaretab - guitar tabs
Song name
# A B C D E F G H I J K L M N O P Q R S T U V W X Y Z

Riddlin Kids - Its The End Of The World As We Know It tab

Artist:  Riddlin Kids
Song:  It's the End of the World as We Know It
Album:  Hurry Up and Wait
Track:  15
Tabbed by:  Rick  (rickrack97@hotmail.com)
AIM:  rickrack97


Chords:

G5   (355xxx)  F5  (133xxx)
C5   (x355xx)  E5  (022xxx)
A5   (577xxx)
Bb5  (688xxx)
D5   (x577xx)


Intro:

E|----------------------------------------------|
B|----------------------------------------------|
G|----------5---------------5-------------------|
D|-5--------5-------5-------5-------------------|
A|-5--------3-------5-------3-------------------|
E|-3----------------3-----------Pick Slide------|

Verse:

E|----------------------------------------------|
B|----------------------------------------------|
G|----------------------5--5555555555555555-----|
D|-5-555555555555555555-5--5555555555555555-----|
A|-5-555555555555555555-3--3333333333333333-----| 
E|-3-333333333333333333-------------------------|
     |----------------|    |--------------|
          palm                  mute
cont. (play the above part twice before the next part)
[ Tab from: http://www.guitaretab.com/r/riddlin-kids/130138.html ]
E|---------------------------------------------------------------------|
B|---------------------------------------------------------------------|
G|---------------------------------------------------------------------|
D|--8-8-8-8-8-8-8-8-8-8-8-8-8-8-8-7-7-7-7-7-7-7-7-7-7-7-7-7-7-7-7------|
A|--8-8-8-8-8-8-8-8-8-8-8-8-8-8-8-7-7-7-7-7-7-7-7-7-7-7-7-7-7-7-7------|
E|--6-6-6-6-6-6-6-6-6-6-6-6-6-6-6-5-5-5-5-5-5-5-5-5-5-5-5-5-5-5-5------|


Chorus:

E|----------------------------------|
B|----------------------------------|
G|---------7-7-7-7------------------|
D|-5-5-5-5-7-7-7-7-7-7-7-7-7-7-7-7--|
A|-5-5-5-5-5-5-5-5-7-7-7-7-7-7-7-7--|
E|-3-3-3-3---------5-5-5-5-5-5-5-5--|
cont.(play the above part four times, then play this)

E|----------------------------------|
B|----------------------------------|
G|-5-5-5-5-5-5-5-5-5-5-5-5-5-5-5-5--|
D|-5-5-5-5-5-5-5-5-5-5-5-5-5-5-5-5--|
A|-3-3-3-3-3-3-3-3-3-3-3-3-3-3-3-3--|
E|----------------------------------|


Interlude:(play the chords G5 and then C5 a few times, then play this)

E|-----------------------------------|
B|-----------------------------------|
G|-----------------------------------|
D|-3--2--3--2-3-2---3--2--3--2-3-2---|
A|-3--2--3--2-3-2---3--2--3--2-3-2---|
E|-1--0--1--0-1-0---1--0--1--0-1-0---|

That should be all.  Email me if you need to.  Later.
Related for Its The End Of The World As We Know It tab
Advertisement will be closed in 10 seconds