Song name
# A B C D E F G H I J K L M N O P Q R S T U V W X Y Z

Rigo Tovar - Lamento De Amor tab

E --5-8-5---5------------------------------|
B --------6---6---------5-6--6-6-5-6-7-8---|
G --------------5---5-7--------------------|
D -----------------------------------------|
A -----------------------------------------|
E -----------------------------------------|

E --------6-----6----------------------------5--|
B --8-8-8---8-5---8-5---5-6-7-8--8-8-8-6-5-6----|
G ----------------------------------------------|
D ----------------------------------------------|
A ----------------------------------------------|
E ----------------------------------------------|

E --13-12-10-13-12-10-12---10-8--12-10-8--10--|
B --15-13-11-15-13-11-13---11-10-13-11-10-11--|
G --------------------------------------------|
D --------------------------------------------|
A --------------------------------------------|
E --------------------------------------------|

E --8--6-10-8--6-8----13-13-13-|
B --10-8-11-10-8-10---15-15-15-|
G -----------------------------|
D -----------------------------|
A -----------------------------|
E -----------------------------|


E --13-12-10-13-12-10-12---10-8--12-10-8--10--|
B --15-13-11-15-13-11-13---11-10-13-11-10-11--|
G --------------------------------------------|
D --------------------------------------------|
A --------------------------------------------|
E --------------------------------------------|

E --8--6-10-8--6-5---|
B --10-8-11-10-8-6---|
G -------------------|
D -------------------|
A -------------------|
E -------------------|
Tap to rate this tab
 
# A B C D E F G H I J K L M N O P Q R S T U V W X Y Z