Song name
# A B C D E F G H I J K L M N O P Q R S T U V W X Y Z

Rihanna - Love The Way You Lie tab

Intro (Rihanna's voice)


--------10--------10--------------------------------------------|
---8--------8--6------8-6---4-4-4--3-3----4-4--3-3--------------|
-7---7----------------------------------------------5-5---------|
----------------------------------------------------------------|
----------------------------------------------------------------|
----------------------------------------------------------------|

--------10--------10--------------------------------------------------|
---8--------8--6------8-6---4-4-4--3-3----4-4--3-3---------4-3-3------|
-7---7----------------------------------------------5-5-----------3-3-|
----------------------------------------------------------------------|
----------------------------------------------------------------------|
----------------------------------------------------------------------|
Tap to rate this tab
 
# A B C D E F G H I J K L M N O P Q R S T U V W X Y Z