Song name
# A B C D E F G H I J K L M N O P Q R S T U V W X Y Z

Rikki Sjoerd Lucas Edwin Gtst - Jij tab

Chords + Guitar tab: Rikki - Jij (by www.bastiaan77.nl)

Chords:

Intro:
G - D - Am - D
G - D - Am - D - D

Couplet:
G - D - Am - C - D
G - D - Am - C - D
G - D - Am - C - D
G - D - Am - C - D

C - G - Am - G
C - G - Am - D - D

Refrein:
G - D - Am - D
G - D - Am - D
G - D - Am - D
G - D - Am - D - D

Outro:
C - G - Am - D - G

Guitar tab:

E|-----------------------0---------------------------------0---------------------------|
B|-------3-------------3-----3---------------0h1---------3---3-------------------------|
G|-----0-------------2---------2-----------2-----2-----2-------2p0---------------------|
D|---0-------------0---------------------2---------0-----------------------------------|
A|---------------------------------0---------------------------------------------------|
E|-3-----------------------------------------------------------------------------------|

E|---------------------------------------------0-----------0h2-------------------------|
B|-------3---------------3-------------------1---1-------3-----3-----------------------|
G|-----0---------------0-----0-------------4-----------2---------2---------------------|
D|---0---------------4---------4---------2---------0---------------0-------------------|
A|-----------------5---------------0---------------------------------------------------|
E|-3-----------------------------------------------------------------------------------|

E|-----------------------0-------------------------------------------------------------|
B|-------3-------------3-------------------0h1-----------------3-----------------------|
G|-----0-------------2-------------------2-----2p0-----0-----2--p0---------------------|
D|---0-------------0-------------------2-------------2-----0---------------------------|
A|---------------------------------0---------------3-----------------------------------|
E|-3-----------------------------------------------------------------------------------|

E|-------------------------------------------------------------------------------------|
B|-------3---------------3---------------0h1-------------------3-----------------------|
G|-----0---------------0-------------------------0-------0---2--p0---------------------|
D|---0---------------4-----------------2-------------0h2---0---------------------------|
A|-----------------5---------------0---------------3-----------------------------------|
E|-3-----------------------------------------------------------------------------------|

E|-----------------------0-------------------------------------------------------------|
B|-------3-------------3-----3---------------0h1---------------3-----------------------|
G|-----0-------------2---------2-----------2-----0-------0---2--p0---------------------|
D|---0-------------0---------------------2-----------0h2---0---------------------------|
A|---------------------------------0---------------3-----------------------------------|
E|-3-----------------------------------------------------------------------------------|

E|-----------------------0-------------------------------------------------------------|
B|-------3-------------3-----3---------------0h1-----------------3---------------------|
G|-----0-------------2---------2-----------2-----0-------0-----2-----------------------|
D|---0-------------0---------------------2-----------0h2---0---------------------------|
A|---------------------------------0---------------3-----------------------------------|
E|-3-----------------------------------------------------------------------------------|

E|-------------------------------------------------------------------------------------|
B|-------3---------------3---------------0h1-------3-----3-----------------------------|
G|-----0-------0-------0-------0-------2-----0---0-----0---------0---------------------|
D|---2-----------0---0-----------0---2---------2-----0---------0-----------------------|
A|-3---------------2---------------0---------------2-----------------------------------|
E|-------------------------------------------------------------------------------------|

E|-----------------------------------------------0-------------0---2-------------------|
B|-------3---------------3-----------------0h1-------------3-------3-------------------|
G|-----0-------0-------0-------0---------2-----2---------2---2-----2-------------------|
D|---2-----------0---0-----------0-----2-----------0---------------0-------------------|
A|-3---------------2---------------0---------------------------------------------------|
E|-------------------------------------------------------------------------------------|

E|----------------------------------------------------------------0h2p0----------------|
B|------------------------------------------------0h1-----------3-------3--------------|
G|--Chords Progression I (One time)-------------2-----2p0-----2-----------2-------..p0-|
D|--------------------------------------------2-----------0----------------------------|
A|------------------------------------...-0--------------------------------------------|
E|-------------------------------------------------------------------------------------|

E|-----------------------0-------------------------------------------------------------|
B|-------3-------------3-----3------------0h1-------------------3----------------------|
G|-----0-----0-------2---------2--------2-------0---------0------p0--------------------|
D|---0---------0---0------------------2-----------0---0h2---0-0------------------------|
A|----------------------------------0---------------3----------------------------------|
E|-3-----------------------------------------------------------------------------------|

E|-----------------------0-------------------------------------------------------------|
B|-------3-------------3-----3--------------0h1-----------------3----------------------|
G|-----0-----0-------2---------2----------2-----0---------0---2--p0--------------------|
D|---0---------0---0--------------------2---------0---0h2---0--------------------------|
A|----------------------------------0---------------3----------------------------------|
E|-3-----------------------------------------------------------------------------------|

E|-----------------------0-------------------------------------------------------------|
B|-------3-------------3-----3--------------0h1-----------------3----------------------|
G|-----0-----0-------2---------2----------2-----0---------0---2--p0--------------------|
D|---0---------0---0--------------------2---------0---0h2---0--------------------------|
A|----------------------------------0---------------3----------------------------------|
E|-3-----------------------------------------------------------------------------------|

E|-----------------------0-------------------------------------------------------------|
B|-------3-------------3-----3--------------0h1-----------------3----------------------|
G|-----0-----0-------2---------2----------2-----0---------0---2--p0--------------------|
D|---0---------0---0--------------------2---------0---0h2---0--------------------------|
A|----------------------------------0---------------3----------------------------------|
E|-3-----------------------------------------------------------------------------------|

E|-------------------------------------------------------------------------------------|
B|-------3---------------3---------------0h1-------3-----3-----------------------------|
G|-----0-------0-------0-------0-------2-----0---0-----0---------0---------------------|
D|---2-----------0---0-----------0---2---------2-----0---------0-----------------------|
A|-3---------------2---------------0---------------2-----------------------------------|
E|-------------------------------------------------------------------------------------|

E|-----------------------------------------------0-------------0---2-------------------|
B|-------3---------------3-----------------0h1-------------3-------3-------------------|
G|-----0-------0-------0-------0---------2-----2---------2---2-----2-------------------|
D|---2-----------0---0-----------0-----2-----------0---------------0-------------------|
A|-3---------------2---------------0---------------------------------------------------|
E|-------------------------------------------------------------------------------------|

E|----------------------------------------------------------------0h2------------------|
B|--------------------------------------------------------------3----------------------|
G|--Chords Progression I (One time)---------------------------2------------------------|
D|--------------------------------------------------------0----------------------------|
A|--------------------------------------------------------------------0h2--------------|
E|-------------------------------------------------------------------------------------|

E|-------------------------------------------------------------------------------------|
B|-------3---------------3---------------1---------3-----3-----------------------------|
G|-----0-----0---------0-----0---------2---------------0---------0---------------------|
D|---2---------0-----0---------0-----2---------------0---------0-----------------------|
A|-3---------------2---------------0---------------2-----------------------------------|
E|-------------------------------------------------------------------------------------|

E|-------------------------------------------------------------0---2-------------------|
B|-------3---------------3---------------1-----------------3-------3-------------------|
G|-----0---------------0---------------2-----------------2---2-----2-------------------|
D|---2---------------0---------------2-------------0---------------0-------------------|
A|-3---------------2---------------0---------------------------------------------------|
E|-------------------------------------------------------------------------------------|

E|----------------------------------------------------------------0--------------------|
B|--------------------------------------------------------------3----------------------|
G|--Chords Progression I (One time)---------------------------2------------------------|
D|--------------------------------------------------------0----------------------------|
A|--------------------------------------------------------------------0h2--------------|
E|-------------------------------------------------------------------------------------|

E|-----------------------------------------------2---------3---------------------------|
B|-------3---------------3---------------1-----3---------3-----------------------------|
G|-----0-----0---------0-----0---------2-----2---------0-------------------------------|
D|---2---------0-----0---------0-----2-----0---------0---------------------------------|
A|-3---------------2---------------0---------------------------------------------------|
E|-------------------------------------------------3-----------------------------------|

Chords Progression I
G - D - Am - D
G - D - Am - D
G - D - Am - D
G - D - Am - D - D
Tap to rate this tab
 
# A B C D E F G H I J K L M N O P Q R S T U V W X Y Z