Song name
# A B C D E F G H I J K L M N O P Q R S T U V W X Y Z

Rio Reiser - Gefahr chords

Highlighted       Show chord diagrams
 
 
Song:   Gefahr
Artist: Rio Reiser
Album:  Himmel & Hölle
 
 
Chords:
 
Am     x02210
G      320003
C      x32010
Dm     x00231
E      022100
 
 
Intro:
 
2x  Am / G / C / Dm E     (Dm and E only half a bar) 
 
2x  Melody then with text: 
 
  Am        G             C                    Dm      E
E|---------|-------------|----0-----------0---|-1--0--|-----0--:|
B|--1-0----|---3--1--0---|-------3--1--3------|-------|-3------:|
G|------2--|-------------|--------------------|-------|--------:|
D|---------|-------------|--------------------|-0-----|--------:|
A|0--------|-2-----------|-3------------------|-------|--------:|
E|---------|-------------|--------------------|-------|-0------:|
 
Am            G
Na wie geht's in euerem Kästchen?
C                      Dm     E
Fühlt Ihr euch wohl in euerem Nestchen?
Am          G
Oder hakt's bei den Rädchen,
C                  Dm        E
verirren sich vielleicht die Fädchen? 
 
Dm
Ich will fliegen, tauchen, rasen, will nicht Angst, ich will Gefahr.
E
Ich will leben, will mich fühlen und ich zahl dir jetzt und bar. 
 
Interlude A:
 
E|-----------------|
B|-----------------|
G|-----------------|
D|-2--0------------|
A|-------3--2---0--|
E|-----------------|
 
Am        G           C                Dm      E
Autobahn, linke Spur, hart am Abgrund, hart am Rand.
Am         G            C                Dm       E
Ich allein in New York, jemand raubt mir den Verstand.
Am            G           C                 Dm        E
Unter Geiern, Löwenkäfig, giftige Schlangen in meinem Bett.
Am           G        C                   Dm    E
Alle Drogen, Alkohol, ich will Gefahr von A bis Z. 
 
Dm
Ich steh gern auf Häuserdächern, geh gern über dünnes Eis.
E
Und ich tanz gern auf dem Seile, manche mögen's eben heiß. 
 
Interlude B:
  
E|-------------       ------------------|
B|-------------       ------------------|
G|------------- Break ------------------|
D|-2--0--------       --2--0------------|
A|-------3--2--       --------3--2---0--|
E|-------------       ------------------|
 
Then continue with:   Am / G / C / Dm E
 
Ich will Gefahr, will sterben oder töten,
spring aus den Wolken dem Haifisch in's Maul.
Ich spreng den Staudamm, bebe die Erde,
flieg auf nem Drachen von Pol zu Pol.
Ich will mein Blut sehen, ich will fallen,
ich will tauchen bis zum tiefen Rausch. 
 
Eine Nacht in der Wüste, ein Wochenende im Irrenhaus.
Ich will verbrennen, explodieren, nix in der Hand und nichts mehr im Griff.
Alle Bremsen soll'n blockieren, volle Kraft auf's nächste Riff.
Ich will mich töten, will mich retten, will barfuß durch die Hölle gehen.
Ich will Fieber, ich will Frost, will die Welt nicht durch die Glotze sehen. 
 
Dm
Ich bin das große Unbekannte und heiße XYZ.
E
Du kriegst mich nicht auf deinen Radarschirm, ich bin ein unsichtbares Flugobjekt.
 
Outro:
 
                Am
E|--------------0--|
B|--------------1--|
G|--------------2--|
D|-2--0---------2--|
A|-------3--2---0--|
E|--------------x--|
 
 
____________________________
Transcribed by: Freddie Abel
 
Tap to rate this tab
# A B C D E F G H I J K L M N O P Q R S T U V W X Y Z