Song name
# A B C D E F G H I J K L M N O P Q R S T U V W X Y Z

Rise Against - Swing Life Away tab

-------------------------------------------------------------------------------
			     Swing Life Away - Rise Against
-------------------------------------------------------------------------------
Tabbed by:Br3TT
Email:irishfool6@myway.com

Tuning:Standard low to high (EADGBe)

Intro:
                                                         
grt I (harmonics)
e------------------------|  \
b---12-------------------|   |
g------12------12-7------|   |
d---------12-7------12---|   |
a------------------------|   |
E------------------------|   |_____________________________   X3
                                                           \
 gtr II           d u u u d u u d        d u u u d u u d    \ 
e-----------------0-0-0-0-0-0-0-0---|----2-2-2-2-2-2-2-2---| | 
e-----------------------------------|----------------------| |  
b----0------------3-3-3-3-3-3-3-3---|----3-3-3-3-3-3-3-3---| | 
g------0---2-0----0-0-0-0-0-0-0-0---|----2-2-2-2-2-2-2-2---| |
d--------0-----4--2-2-2-2-2-2-2-2---|----------------------| |
a-----------------3-3-3-3-3-3-3-3---|----------------------| |
E-----------------x-x-x-x-x-x-x-x---|----------------------| |

0:18                                   X3                     X1
     d u u d  d u u d  d u u u d u u d        d u u u d u u d
e----0-0-0-0--0-0-0-0--0-0-0-0-0-0-0-0---|----2-2-2-2-2-2-2-2---|
b----0-0-0-0--3-3-3-3--1-1-1-1-1-1-1-1---|----3-3-3-3-3-3-3-3---|
g----0-0-0-0--0-0-0-0--0-0-0-0-0-0-0-0---|----2-2-2-2-2-2-2-2---|    X 2
d----2-2-2-2--2-2-2-2--2-2-2-2-2-2-2-2---|----------------------|
a----2-2-2-2--3-3-3-3--3-3-3-3-3-3-3-3---|----------------------|
E----0-0-0-0--x-x-x-x--0-0-0-0-0-0-0-0---|----------------------|

0:49 
     d u u d  d u u d  d u u u d u u d  d u u d  d u u d  d u u u d u u d
e----0-0-0-0--0-0-0-0--0-0-0-0-0-0-0-0--0-0-0-0--0-0-0-0--2-2-2-2-2-2-2-2---|
b----0-0-0-0--3-3-3-3--1-1-1-1-1-1-1-1--0-0-0-0--3-3-3-3--3-3-3-3-3-3-3-3---|
g----0-0-0-0--0-0-0-0--0-0-0-0-0-0-0-0--0-0-0-0--0-0-0-0--2-2-2-2-2-2-2-2---|    X 2
d----2-2-2-2--2-2-2-2--2-2-2-2-2-2-2-2--2-2-2-2--2-2-2-2--------------------|
a----2-2-2-2--3-3-3-3--3-3-3-3-3-3-3-3--2-2-2-2--3-3-3-3--------------------|
E----0-0-0-0--x-x-x-x--0-0-0-0-0-0-0-0--0-0-0-0--x-x-x-x--------------------|

1:07
                                       X3                     X1
     d u u d  d u u d  d u u u d u u d        d u u u d u u d 
e----0-0-0-0--0-0-0-0--0-0-0-0-0-0-0-0---|----2-2-2-2-2-2-2-2---|
b----0-0-0-0--3-3-3-3--1-1-1-1-1-1-1-1---|----3-3-3-3-3-3-3-3---|
g----0-0-0-0--0-0-0-0--0-0-0-0-0-0-0-0---|----2-2-2-2-2-2-2-2---|    X 2
d----2-2-2-2--2-2-2-2--2-2-2-2-2-2-2-2---|----------------------|
a----2-2-2-2--3-3-3-3--3-3-3-3-3-3-3-3---|----------------------|
E----0-0-0-0--x-x-x-x--0-0-0-0-0-0-0-0---|----------------------|

1:38
                                                                          X2                      X1
     d u u d  d u u d  d u u u d u u d  d u u d  d u u d  d u u u d u u d        d u u u d u u d
e----0-0-0-0--0-0-0-0--0-0-0-0-0-0-0-0--0-0-0-0--0-0-0-0--2-2-2-2-2-2-2-2---|----2-2-2-2-2-2-2-2---|
b----0-0-0-0--3-3-3-3--1-1-1-1-1-1-1-1--0-0-0-0--3-3-3-3--3-3-3-3-3-3-3-3---|----3-3-3-3-3-3-3-3---|
g----0-0-0-0--0-0-0-0--0-0-0-0-0-0-0-0--0-0-0-0--0-0-0-0--2-2-2-2-2-2-2-2---|----2-2-2-2-2-2-2-2---|
d----2-2-2-2--2-2-2-2--2-2-2-2-2-2-2-2--2-2-2-2--2-2-2-2--------------------|----------------------|
a----2-2-2-2--3-3-3-3--3-3-3-3-3-3-3-3--2-2-2-2--3-3-3-3--------------------|----------------------|
E----0-0-0-0--x-x-x-x--0-0-0-0-0-0-0-0--0-0-0-0--x-x-x-x--------------------|----------------------|

Bridge:
1:59
            d u u d         d u u d         d u u d         d u u d
e-----------0-0-0-0---------0-0-0-0---------0-0-0-0---------0-0-0-0---|
b----0------3-3-3-3---------3-3-3-3---------3-3-3-3---------1-1-1-1---|
g------0----0-0-0-0--2-0----0-0-0-0--2-0----0-0-0-0------0--0-0-0-0---|
d--------0--2-2-2-2------4--2-2-2-2------4--2-2-2-2----0----2-2-2-2---|
a-----------3-3-3-3---------3-3-3-3---------3-3-3-3--0------3-3-3-3---|
E-----------x-x-x-x---------x-x-x-x---------x-x-x-x---------x-x-x-x---|

2:07
 
            d u u d         d u u d         d u u d  d u u d  d u u d  d u u d  d u u d u u d
e-----------0-0-0-0---------0-0-0-0---------0-0-0-0--0-0-0-0--0-0-0-0--0-0-0-0--2-2-2-2-2-2-2---|
b----0------3-3-3-3---------3-3-3-3---------3-3-3-3--0-0-0-0--3-3-3-3--1-1-1-1--3-3-3-3-3-3-3---|
g------0----0-0-0-0--2-0----0-0-0-0--2-0----0-0-0-0--0-0-0-0--0-0-0-0--0-0-0-0--2-2-2-2-2-2-2---|
d--------0--2-2-2-2------4--2-2-2-2------4--2-2-2-2--2-2-2-2--2-2-2-2--2-2-2-2------------------|
a-----------3-3-3-3---------3-3-3-3---------3-3-3-3--2-2-2-2--3-3-3-3--3-3-3-3------------------|
E-----------x-x-x-x---------x-x-x-x- -------x-x-x-x--0-0-0-0--x-x-x-x--0-0-0-0------------------|

2:21
     d    d    d    d    d    d        d u u d  d u u d  d u u d u u d  d u u u d u u d
e----0----0----0----0----0----0---|----0-0-0-0--0-0-0-0--0-0-0-0-0-0-0--2-2-2-2-2-2-2-2---|
b----0----3----1----0----3----1---|----0-0-0-0--3-3-3-3--1-1-1-1-1-1-1--3-3-3-3-3-3-3-3---|
g----0----0----0----0----0----0---|----0-0-0-0--0-0-0-0--0-0-0-0-0-0-0--2-2-2-2-2-2-2-2---|
d----2----2----2----2----2----2---|----2-2-2-2--2-2-2-2--2-2-2-2-2-2-2--------------------|
a----2----3----3----2----3----3---|----2-2-2-2--3-3-3-3--3-3-3-3-3-3-3--------------------|
E----0----x----0----0----x----0---|----0-0-0-0--x-x-x-x--0-0-0-0-0-0-0--------------------|

2:37
                                                                                                
     d u u d  d u u d  d u u u d u u d  d u u d  d u u d  d u u u d u u d    
e----0-0-0-0--0-0-0-0--0-0-0-0-0-0-0-0--0-0-0-0--0-0-0-0--2-2-2-2-2-2-2-2---|
b----0-0-0-0--3-3-3-3--1-1-1-1-1-1-1-1--0-0-0-0--3-3-3-3--3-3-3-3-3-3-3-3---|
g----0-0-0-0--0-0-0-0--0-0-0-0-0-0-0-0--0-0-0-0--0-0-0-0--2-2-2-2-2-2-2-2---|    X 2
d----2-2-2-2--2-2-2-2--2-2-2-2-2-2-2-2--2-2-2-2--2-2-2-2--------------------|
a----2-2-2-2--3-3-3-3--3-3-3-3-3-3-3-3--2-2-2-2--3-3-3-3--------------------|
E----0-0-0-0--x-x-x-x--0-0-0-0-0-0-0-0--0-0-0-0--x-x-x-x--------------------|

Outro:
2:55
                                       X4              X1 
     d u u d  d u u d  d u u u d u u d               d
e----0-0-0-0--0-0-0-0--0-0-0-0-0-0-0-0---|-----------0---|
b----0-0-0-0--3-3-3-3--1-1-1-1-1-1-1-1---|----0------0---|
g----0-0-0-0--0-0-0-0--0-0-0-0-0-0-0-0---|------0----0---|   
d----2-2-2-2--2-2-2-2--2-2-2-2-2-2-2-2---|--------0--2---|
a----2-2-2-2--3-3-3-3--3-3-3-3-3-3-3-3---|-----------2---|
E----0-0-0-0--x-x-x-x--0-0-0-0-0-0-0-0---|-----------0---|

i'd say that this is about 99% correct

ENJOY!!!


          Swing Life Away - Rise Against
There are a lot of tabs for this song out there but This one seems way clearer to me and
will definitely help out anyone who wants to learn this song. I've included the acoustic
solo which I'd like to say is perfect. Please rate this tab, whether you like it or
not... I'm trying to decide whether or not to keep tabbing. Any comments, email me at
irishfool@myway.com, subject: "your tab" Thanks. ENJOY

                                                
*tune down = step*

CHORDS USED (please excuse my attempts at naming them  just use the names as a
reference to this chart. Sorry.)

Eb eb-x   Gb eb-x  Bsus  eb-x  C#6  eb-x  C#sus4 eb-x-|
   Bb-0      Bb-3        Bb-3       Bb-3         Bb-3-|
   Gb-0      Gb-0        Gb-0       Gb-0         Gb-2-|
   Db-2      Db-0        Db-2       Db-4         Db-0-|
   Ab-2      Ab-2        Ab-3       Ab-5         Ab-x-|
   Eb-0      Eb-3        Eb-x       Eb-x         Eb-x-|

Intro


eb--------------------x-x-x-x-x-x-x-x-x--------]--x-x-x-x-x-x-x-x-----------|I
Bb---0----------------3-3-3-3-3-3-3-3-3--------]--3-3-3-3-3-3-3-3-----------|I
Gb-----0----2--0------0-0-0-0-0-0-0-0-0--------]--2-2-2-2-2-2-2-2-----------|I    {x3)
D -------0-------4----0-0-0-0-0-0-0-0-0--------]--0-0-0-0-0-0-0-0-----------|I
Ab--------------------3-3-3-3-3-3-3-3-3--------]----------------------------|I
Eb---0------3---------x-x-x-x-x-x-x-x-x--------]----------------------------|I


              Eb          Gb          Bsus
Am I loud and clear, or am I breaking up?
                Eb           Gb       Bsus
Am I still your charm, or am I just bad luck?
    Eb         Gb             Bsus                 C#6
Are we getting closer, or are we just getting more lost?


              Eb          Gb            Bsus
I'll show you mine if you show me yours first
              Eb          Gb           Bsus
Let's compare scars, I'll tell you whose is worse
      Eb            Gb          Bsus                    C#6
Let's unwrite these pages and replace them with our own words


   Eb            Gb          Bsus
We live on front porches and swing life away,
   Eb          Gb           Bsus    c#sus4
We get by just fine here on minimum wage
   Eb        Gb         Bsus
If love is a labor I'll slave till the end,
  Eb                Gb            Bsus        C#sus4
I won't cross these streets until you hold my hand


                  Eb                 Gb          Bsus
I've been here so long, I think that it's time to move
                Eb             Gb       Bsus
The winter's so cold, summer's over too soon
Eb             Gb       Bsus                         C#6
Let's pack our bags and settle down where palm trees grow


              Eb                 Gb       Bsus
I've got some friends, some that I hardly know
                   Eb                Gb            Bsus
But we've had some times, I wouldn't trade for the world
               Eb             Gb           Bsus                C#6
We chase these days down with talks of the places that we will go


   Eb            Gb          Bsus
We live on front porches and swing life away,
   Eb          Gb           Bsus    C#sus4
We get by just fine here on minimum wage
   Eb        Gb         Bsus
If love is a labor I'll slave till the end,
  Eb                Gb            Bsus       C#sus4      Bsus         C#sus4
I won't cross these streets until you hold my hand....til you hold my hand


SOLO:

e-x--x--x----x--x--x--0--x--0----x--x--x---0--x--0---x--x--x--0------x--x-x--I
B-0--1--3----3--3--3--1--3--1----3--3--3---1--3--1---3--3--3--0------3--3--3---|I
G-0--0--0----0--0--0--0--0--0----0--0--0---0--0--0---0--0--0--0----0-2--2--2---|I
D-2--2--2----0--0--0--2--2--2----0--0--0---2--2--2---0--0--0--2--4---0--0--0---|I
A-2--2--2----2--2--2--3--3--3----2--2--2---3--3--3---2--2--2--2----------------|I
E-0--0--0----x--x--x------------------------------------------0----------------|I

e-3--x--x--------------0--x--0-------------0--x--0-----------------------------|I
B-x--3--1---3--3--3----1--3--1---3--3--3---1--3--1---3--3--3-------------------|I
G-0--0--0---0--0--0----0--0--0---0--0--0---0--0--0---0--0--0-------------------|I
D-2--2--2---0--0--0----2--2--2---0--0--0---2--2--2---0--0--0-------------------|I
A-2--2--2---2--2--2----3--3--3---2--2--2---3--3--3---2--2--2-------------------|I
E-0--0--0---x--x--x------------------------------------------------------------|I


e----------------------------------------------------------------------------------------|I
B--1--1--1--1--1--1--1--1--1--1----------3--3--3--3--3--3--3--3--3-----------------------|I
G--2--2--2--0--0--0--2--2--2--0-----0----0--0--0--0--0--0--0--0--0-----------I-----------|{let ring)
D--2--2--2--2--2--2--2--2--2--2--4-------0--0--0--0--0--0--0--0--0-----------------------|I
A--0--0--0--0--0--0--0--0--0--0----------3--3--3--3--3--3--3--3--3-----------------------|I
E----------------------------------------------------------------------------------------|I
Throughout solo, attempt to put emphasis on strings 1,2 and 3 to pick out melody.


              Eb          Gb            Bsus
I'll show you mine if you show me yours first
              Eb          Gb          Bsus
Let's compare scars, I'll tell you whose is worse
      Eb            Gb          Bsus                    C#6
Let's unwrite these pages and replace them with our own words


   Eb            Gb          Bsus
We live on front porches and swing life away,
   Eb          Gb           Bsus    C#sus4
We get by just fine here on minimum wage
   Eb        Gb         Bsus
If love is a labor I'll slave till the end,
  Eb                Gb            Bsus        C#sus4
I won't cross these streets until you hold my hand

Eb    Gb   Bsus
Swing life away [x4]
Tap to rate this tab
 
# A B C D E F G H I J K L M N O P Q R S T U V W X Y Z