Guitaretab - guitar tabs
Song name
# A B C D E F G H I J K L M N O P Q R S T U V W X Y Z

River City High - Runaround tab

Tabbed by: Colin Gibson
River City High-Runaround
http://www.rivercityhigh.com/

This is most likely wrong but I can bearly find any other River City High tabs and none 
this song. so heres the intro...


------------------------------------------------------|
------------------------------------------------------|
-66666-99999-66666-99-----66666-99999-----------------|
-66666-99999-66666-99-999-66666-99999---6----6-7-6---6|
-44444-77777-44444-77-999-44444-77777-9------------9--|
----------------------777-----------------------------|
[ Tab from: http://www.guitaretab.com/r/river-city-high/143219.html ]
--------------------------------------------------|
--------------------------------------------------|
-66666-99999-66666-99-----66666-99999-------------|
-66666-99999-66666-99-999-66666-99999---6-----9-11|
-44444-77777-44444-77-999-44444-77777-9-----------|
----------------------777-------------------------|

------------------------------(12)---------------------------------|
-12---10---9----12---10---9-------(12)-12---10---9----12---10---9--|
----9----9---9-----9----9---9-------------9----9---9-----9----9---9|
-------------------------------------------------------------------|
-------------------------------------------------------------------|
-------------------------------------------------------------------|

--------------------------|
--------------------------|
--------------------------|
---6---9-11--13-14--16-18-|
-9------------------------|
--------------------------|

[end]
Related for Runaround tab