Song name
# A B C D E F G H I J K L M N O P Q R S T U V W X Y Z

Rivers Johnny - Secret Agent Man tab

E--------0-------0-------0--|-------0-------0-----0--|
B--0--------1--------1------|--2-------1-------1-----|
G---------------------------|------------------------|
D---------------------------|------------------------|
A---------------------------|------------------------|
E---------------------------|------------------------|

Repeat that a few times, then play . . .

E------------------|---------------------------|---------------------------|
B----------------0-|---------------------------|---------------------------|
G-----------0------|--2----2--0--2--0----------|--0------------------------|
D--2-----2---------|-------------------2--2----|--------2------------r-----|
A------------------|---------------------------|---------------------------|
E------------------|---------------------------|---------------------------|

E---------------------|-----------------|---------------------|
B-5------------5---5--|-----------------|-------------3-------|
G-4-----4---7---------|----------0---2--|--4---4---4-------4--|
D---------------------|-2----2----------|---------------------|
A---------------------|-----------------|---------------------|
E---------------------|-----------------|---------------------|

E-------|--------------|---------------------|
B--4----|--------3-----|--5---5---5---3------|
G----4--|-----4-----4--|----------------4----|
D-------|--r-----------|------------------5--|
A-------|--------------|---------------------|
E-------|--------------|---------------------|

E------------------|---------------------------|---------------------------|
B------------------|---------------------------|-----3---------------------|
G--4------2---0----|--2----2--0--2--0----------|--4-----2--0--2--2---------|
D------------------|-------------------2-------|--------------------2--0---|
A------------------|---------------------------|---------------------------|
E------------------|---------------------------|---------------------------|

E---------------------------|---------------------------|------------------|
B---------------------0-----|---------------------------|------------------|
G--------------0------------|--2-----2---0--2--2--------|--0---------------|
D---2-----2-----------------|---------------------2--2--|-----2------------|
A---------------------------|---------------------------|------------------|
E---------------------------|---------------------------|------------------|

E---------------------------|-----2---------------------|
B------------------------3--|-----------3----5----------|
G---------------------4-----|---------------------------|
D------------------r--------|--r------------------------|
A---------------------------|---------------------------|
E---------------------------|---------------------------|

Just listen to the record to see where and when to repeat all that, u can play straight 
to this last bar then he repeats random parts, short but fun song!
Tap to rate this tab
# A B C D E F G H I J K L M N O P Q R S T U V W X Y Z