Song name
# A B C D E F G H I J K L M N O P Q R S T U V W X Y Z

Riverside - We Got Used To Us tab

Riverside
Shrine of New Generation Slaves
We Got Used To Us

Solo (3:03)
E|----------------------------------|----------------------------------|
B|-------------------------16-15-13-|-15-------------------------------|
D|----------------------------------|-------15----12----------12-14-15-|
G|----------------------------------|----------------------------------|
B|----------------------------------|----------------------------------|
E|----------------------------------|----------------------------------|

E|----------------------------------|----------------------------------|
B|-13----------------------13-15----|-13----------------------13-------|
D|-------14-------------------------|-------12--------------------15---|
G|-------------15-------------------|-------------14-------------------|
B|----------------------------------|-------------------15-------------|
E|----------------------------------|----------------------------------|

E|----------------------------------|----------------------------------|
B|-----------------15------15^16----|-15-------------------------------|
D|----------------------------------|-------12----15------------12-----|
G|----------------------------------|----------------------------------|
B|----------------------------------|----------------------------------|
E|----------------------------------|----------------------------------|

E|-13--------------------13-13------|-15-------------------------------|
B|----------------------------------|---------------------13^15-13-----|
D|----------------------------------|------------------------------15--|
G|----------------------------------|----------------------------------|
B|----------------------------------|----------------------------------|
E|----------------------------------|----------------------------------|
Tap to rate this tab
 
# A B C D E F G H I J K L M N O P Q R S T U V W X Y Z