Guitaretab - guitar tabs
Song name
# A B C D E F G H I J K L M N O P Q R S T U V W X Y Z

Rkl - Think Positive tab

song:Think positive
BY:RKl
tabbed by:J-Train666@hotmail.com



(00:00)(intro all palm muted)
E|-------------------------------------------------------------------------|
B|-------------------------------------------------------------------------|
G|-------------------------------------------------------------------------|
D|---------------------5-5-x4----------------------------------------------|
A|-7-7--7-7-6-5-3-3--3-3-3-----------7-7--7-7-6-5--3--3--------------------|
E|-5-5--5-5-4-3-1-1--1---------------5-5--5-5-4-3--1--1/14-----------------|
   : :  : : : : : :  : : :(on the fourth time do this^^^) (/ = slide up)
	
 {(00:09)After you play that four times palm muted, play it again four times
	except not palm muted!.}


(00:19)
E|-------------------------------------------------------------------------|
B|-------------------------------------------------------------------------|
G|-------------------------------------------------------------------------|
D|-7-7--7-7-7--6/7--7-5-----------------------------X2---------------------|
A|-5-5--5-5-5--4/5--5-3-5--7-7--7-7-7-6/7-7--7-7-7-------------------------|
E|----------------------3--5-5--5-5-5-4/5-5--5-5-5-------------------------|

(00:29)
E|-------------------------------------------------------------------------|
B|-------------------------------------------------------------------------|
G|-------------------------------------------------------------------------|
D|---------------------5-5-------------------------------------------------|
A|-7-7--7-7-6-5-3-3--3-3-3--7-7--7-7-6-5--3--3-----------------------------|
E|-5-5--5-5-4-3-1-1--1------5-5--5-5-4-3--1--1/14--------------------------|

(00:33)
E|-------------------------------------------------------------------------|
B|-------------------------------------------------------------------------|
G|-------------------------------------------------------------------------|
D|---------------------5-5-----X4------------------------------------------|
A|-7-7--7-7-6-5-3-3--3-3-3-------------------------------------------------|
E|-5-5--5-5-4-3-1-1--1-----------------------------------------------------|

(00:43)
E|-------------------------------------------------------------------------|
B|-------------------------------------------------------------------------|
G|-------------------------------------------------------------------------|
D|-7-7--7-7-7--6/7--7-5-----------------------------X2---------------------|
A|-5-5--5-5-5--4/5--5-3-5--7-7--7-7-7-6/7-7--7-7-7-------------------------|
E|----------------------3--5-5--5-5-5-4/5-5--5-5-5-------------------------|
          (THINK.....THINK POSITIVE!!)

(00:53)          (b= bend up)                 (\= slide down)
E|-------------------------------------------------------------------------|
B|----------------2--------------------------------------------------------|
G|----------------4b-------------------------------------------------------|
D|-------------------------------------------------------------------------|
A|-7---7-6-5-3-------------------7---7-6-5-3-------------------------------|
E|-5---5-4-3-1-------------------5---5-4-3-1---(12\1)----------------------|
               (keep laughing!)               (Keep laughing!)

(00:58)
E|-------------------------------------------------------------------------|
B|-------------------------------------------------------------------------|
G|-------------------------------------------------------------------------|
D|-8-8--8-8-8--8-8--8-8-8---10-10-x-10-10-x-10---------13------------------|
A|-6-6--6-6-6--6-6--6-6-6---8--8--x-8--8--x-8----------11------------------|
E|-------------------------------------------------------------------------|
[ Tab from: http://www.guitaretab.com/r/rkl/141844.html ]
(01:03)
E|-------------------------------------------------------------------------|
B|-------------------------------------------------------------------------|
G|-------------------------------------------------------------------------|
D|---------------------5-5-------------------------------------------------|
A|-7-7--7-7-6-5-3-3--3-3-3--7-7--7-7-6-5--3--3-----------------------------|
E|-5-5--5-5-4-3-1-1--1------5-5--5-5-4-3--1--1/14--------------------------|

{(01:08)(there is a solo right here that i cant hear good enough to figure out,
so i only have the rythm sorry, try to figure it out if you want.)}
E|-------------------------------------------------------------------------|
B|-------------------------------------------------------------------------|
G|-------------------------------------------------------------------------|
D|---------------------5-5-----X4------------------------------------------|
A|-7-7--7-7-6-5-3-3--3-3-3-------------------------------------------------|
E|-5-5--5-5-4-3-1-1--1-----------------------------------------------------|

(1:18)
E|-------------------------------------------------------------------------|
B|-------------------------------------------------------------------------|
G|-------------------------------------------------------------------------|
D|-7-7--7-7-7--6/7--7-5-----------------------------X2---------------------|
A|-5-5--5-5-5--4/5--5-3-5--7-7--7-7-7-6/7-7--7-7-7-------------------------|
E|----------------------3--5-5--5-5-5-4/5-5--5-5-5-------------------------|
                  (THINK.....THINK POSITIVE!!)
(01:32)
E|-------------------------------------------------------------------------|
B|-------------------------------------------------------------------------|
G|-------------------------------------------------------------------------|
D|-8-8--8-8-8--8-8--8-8-8---10-10-x-10-10-x-10---------13------------------|
A|-6-6--6-6-6--6-6--6-6-6---8--8--x-8--8--x-8----------11------------------|
E|-------------------------------------------------------------------------|

(01:38)(>=let it ring)
E|-------------------------------------4>------------------------6>--------|
B|-------------------------------------4>------------------------6>--------|
G|-7-7-7776-7-7-7777-7-7-7777-7-7-7777-5>------------------------7>--------|
D|-8-8-8888-8-8-8888-8-8-8888-8-8-8888-6>---6------6-------X6----8>--------|
A|-8-8-8888-8-8-8888-8-8-8888-8-8-8888-6>---4-6--4-4-------------8>--------|
E|-6-6-6666-6-6-6666-6-6-6666-6-6-6666-4>-----4--2---------------6>--------|

(02:14)
E|-------------------------------------------------------------------------|
B|-------------------------------------------------------------------------|
G|-------------------------------------------------------------------------|
D|---------------------5-5-----------------------5-5-----------------------|
A|-7-7--7-7-6-5-3-3--3-3-3---7-7--7-7-6-5-3-3--3-3-3-----------------------|
E|-5-5--5-5-4-3-1-1--1-------5-5--5-5-4-3-1-1--1---------------------------|

E|-------------------------------------------------------------------------|
B|-------------------------------------------------------------------------|
G|-------------------------------------------------7-----------------------|
D|---------------------5-5-------------------------8-----------------------|
A|-7-7--7-7-6-5-3-3--3-3-3--7-7--7-7-6-5--3--3-----8-----------------------|
E|-5-5--5-5-4-3-1-1--1------5-5--5-5-4-3--1--1/14--6-----------------------|

im pretty sure thats it, if you want me to change anything,
or add anything send me a messageto J-Train666@hotmail.com ok thank you.

                                                     

                                                     
Related for Think Positive tab
Advertisement will be closed in 10 seconds