Song name
# A B C D E F G H I J K L M N O P Q R S T U V W X Y Z

Roachford - Lay Your Love On Me tab

t. See http://www.olga.net/faq/ for more information.                     #
#-----------------------------------------------------------------------------#

From: "Jo Wech" 
Subject: r/roachford/lay_your_love_on_me.crd
Date: Mon, 20 Sep 1999 15:02:34 +0200

ROACHFORD - LAY YOUR LOVE ON ME
from the record 'Permanent Shade of Blue'
words and music: Andrew Roachford.
Transcribed by Jo Wech.

I recommend to play the song with capo at 1st fret.

Verse riff:
    F         Bb       F       Eb
e|------------------------------------------------------------|
B|--------------------------1---------------------------------|
G|-------------------3------------3---------------------------|
D|--------3-------3----3-------1--1---------------------------|
A|-----3-----1------------------------------------------------|
E|--1---------------------------------------------------------|
                                  Let ring...


Before the chorus is something like that played:
e|------------------------
B|--4-4-3-3-1-------------
G|--3-3-3-3-3-------------


Over the spoken part of the chorus (distorted guitar):
    Gm              Eb
e|------------------------------------------------------|
B|--3-----5-----6---4--6--8-----------------------------|
G|--3-----5-----7---3--5--7-----------------------------|
D|--5-----7-----8---------------------------------------|
A|--5-----7-----8---------------------------------------|
E|--3-----5-----6---------------------------------------|

Solo :
e|--5-6-5-6--------5-5/8-8-6------------------|
B|-------------6-6----------------------------|
G|--------------------------------------------|
D|--------------------------------------------|
A|--------------------------------------------|
E|--------------------------------------------|

Bb            F
Come on, 
                 Gm     Eb
Lay your......
Tap to rate this tab
 
# A B C D E F G H I J K L M N O P Q R S T U V W X Y Z