Song name
# A B C D E F G H I J K L M N O P Q R S T U V W X Y Z

Rob Dougan - Clubbed To Death tab

#-----------------------------------------------------------------------#

   It's my first tab so, please, feel free to report any mistake! ;)

#-----------------------------------------------------------------------#

           ROB DOUGAN - CLUBBED TO DEATH

E|--------------------------------------------------13--|
B|------------------------------------------------------|
G|-----12----12----12----12----12-16-12----12-16-12-----|
D|--12----12----15----12----------------14--------------|
A|--------------------------13--------------------------|
E|------------------------------------------------------|

E|-----------------------------------------------15-----|
B|------------------------------------------------------|
G|--12----12----12----12----12-16-12----12--------------|
D|-----12----------15----15----------14-------14--------|
A|-----------15----------------------------13-----------|
E|------------------------------------------------------|

E|------------------------------------------------------|
B|------------------------------------------------------|
G|--12----12----12--------------------------------------|
D|-----12----15-------15----14-15-12----15--------------|
A|-----------------15----------------16-------------15--|
E|-----------------------15----------------15-13p11-----|

E|------------------------------------------------------|
B|------------------------------------------------------|
G|------------------------------------------------------|
D|--12----12----12----------12----------12--------------|
A|-----12----15-------12-------12----16----12-16-15-----|
E|-----------------13----13-------13--------------------|

E|------------------------------------------------------|
B|------------------------------------------------------|
G|--12----12----12----12----12-------------16-----------|
D|-----12----15----12----15----12-15-14-12----12--------|
A|------------------------------------------------------|
E|------------------------------------------------------|

E|--15-------------------------------------------------|
B|-----13----------------------------------------------|
G|--------12----12-------------------------------------|
D|-----------12----15-12----15-------------------------|
A|-----------------------15-------15-------------------|
E|-----------------------------15----18-15-22-18-(26)--|
Tap to rate this tab
# A B C D E F G H I J K L M N O P Q R S T U V W X Y Z