Song name
# A B C D E F G H I J K L M N O P Q R S T U V W X Y Z

Rob Zombie - Dragula tab

          Tuning:CGCFAD


          Bpm:125


          INTRO


          w/delay
          ---------------3------2-------|
          -5------4---------------------|
          ------------------------------|
          ------------------------------|
          ------------------------------|
          ------------------------------| x2


          Riff A


          ----------------------------------------------------------------|
          ----------------------------------------------------------------|
          -19-19-19-20-20-19-19-19-19-19-19-19-19-19-20-20-19-19-19-19-19-|
          ----------------------------------------------------------------|
          -17-17-17-17-17-17-17-17-17-17-17-17-17-17-17-17-17-17-17-17-17-|
          ----------------------------------------------------------------| x2


          VERSE


          Dead I am the one, Exterminating son,
          Slipping through the trees, strangling the breeze.


          Riff B


          ----------------------------------------------------------------|
          ----------------------------------------------------------------|
          -19-19-19-20-20-19-19-19-19-19-19-19-19-19-20-20-19-19-19-19-19-|
          ----------------------------------------------------------------|
          -17-17-17-17-17-17-17-17-17-17-17-17-17-17-17-17-17-17-17-17-17-|
          --0--0--0--0--0--0--0--0--0--0--0--0--0--0--0--0--0--0--0--0--0-|


          Dead I am the sky, watching angels cry,
          As they slowly turn, conquering the worm.


          CHORUS


          -------------------------------------|
          -------------------------------------|
          -------------------------12--(13/14)-| (bend up to 13 or 14, it has the same affect.)
          -------------------------------------|
          -0-etc-----3-3-0-etc-----------------|
          -0-w/p.m.--3-3-0-w/p.m.--------------| x2
          Dig through the ditches n' burn through the witches I slam in the back of my dragula.


          INTERLUDE


          Rythmic string muting.


          VERSE w/rythmic string muting


          Dead I am the pool, spreading from the fool,
          Weak and want you need, nowhere as you bleed .


          REPEAT RIFF B


          Dead I am the rat, feast upon the cat,
          Tender is the fur, dying as you purr.


          REPEAT CHORUS


          BRIDGE


          RIFF C


          ---------------|
          ---------------|
          -5-5-5-5-6-6-6-|
          -5-5-5-5-5-5-5-|
          -3-3-3-3-3-3-3-|
          ---------------| x2
          p.m..........
          Do it baby,


          REPEAT RIFF B


          REPEAT RIFF C


          REPEAT RIFF B w/"Burn like an animal"


          INTERLUDE 2


          ------------------------------|
          ------------------------------|
          ------------------------------|
          -7-7-7-7-7-7-7-7-7-7----------|
          -5-5-5-5-5-5-5-5-5-5----------|
          -0-0-0-0-0-0-0-0-0-0-5--(6/7)-|


          VERSE


          RIFF D


          ----------------|
          ----------------|
          -20--(21)--(20)-|
          ----------------|
          ----------------|
          ----------------| repeat ad lib.
          Dead I am the life, dig into the skin,
          Knuckle crack the bone, 21 to win.


          REPEAT RIFF B


          REPEAT RIFF D


          Dead I am the dog, hound of hell you cry,
          Devil on your back, I can never die.


          REPEAT CHORUS


          REPEAT BRIDGE


          REPEAT CHORUS


          OUTRO


          -----------|
          -----------| *fade this note in
          -----------|
          -----------|
          ---5*------|
          -0---------| repeat ad lib.


          Dig through the ditches n' burn through the witches I slam in the back of my dragula.
Tap to rate this tab
# A B C D E F G H I J K L M N O P Q R S T U V W X Y Z