Song name
# A B C D E F G H I J K L M N O P Q R S T U V W X Y Z

Rob Zombie - Superbeast tab

Help us improve GuitareTab! Take a short survey!
Drop C Tuning   (C G C F A d)

2x
|------------------------------------------------------------------|
|------------------------------------------------------------------|
|------------------------------------------------------------------|
|--8-8-8-8-8-8-8-8/7-7-7-7-7-7/3-3-3-3-3-3-3-3/4-4-4-4/6-6---------|
|--8-8-8-8-8-8-8 8/7-7-7-7-7-7/3-3-3-3-3-3-3-3/4-4-4-4/6-6---------|
|--8-8-8-8-8-8-8-8/7-7-7-7-7-7/3-3-3-3-3-3-3-3/4-4-4-4/6-6---------|

4x

|---------------------------------------------------|
|---------------------------------------------------|
|---------------------------------------------------|
|--1-1-1-1/7--1-1-1-1/4---1-1-1-1/7--1-1-1-1/2------|
|--1-1-1-1/7--1-1-1-1/4---1-1-1-1/7--1-1-1-1/2------|
|--1-1-1-1/7--1-1-1-1/4---1-1-1-1/7--1-1-1-1/2------|

then the verse
7x
|----------------------------------------------------------------|
|----------------------------------------------------------------|
|----------------------------------------------------------------|
|--1-1-1-1-1-1-1-1-1/6-------------------------------------------|
|--1-1-1-1-1-1-1-1-1/6-------------------------------------------|
|--1-1-1-1-1-1-1-1-1/6-------------------------------------------|

chorus

4x
"Hey yea im the one that you wanted hey yea im the superbeast"
|---------------------------------------------------|
|---------------------------------------------------|
|---------------------------------------------------|
|--1-1-1-1/7--1-1-1-1/4---1-1-1-1/7--1-1-1-1/2------|
|--1-1-1-1/7--1-1-1-1/4---1-1-1-1/7--1-1-1-1/2------|
|--1-1-1-1/7--1-1-1-1/4---1-1-1-1/7--1-1-1-1/2------|


2x
|------------------------------------------------------------------|
|------------------------------------------------------------------|
|------------------------------------------------------------------|
|--8-8-8-8-8-8-8-8/7-7-7-7-7-7/3-3-3-3-3-3-3-3/4-4-4-4/6-6---------|
|--8-8-8-8-8-8-8 8/7-7-7-7-7-7/3-3-3-3-3-3-3-3/4-4-4-4/6-6---------|
|--8-8-8-8-8-8-8-8/7-7-7-7-7-7/3-3-3-3-3-3-3-3/4-4-4-4/6-6---------|

Then back to the verse

7x
|----------------------------------------------------------------|
|----------------------------------------------------------------|
|----------------------------------------------------------------|
|--1-1-1-1-1-1-1-1-1/6-------------------------------------------|
|--1-1-1-1-1-1-1-1-1/6-------------------------------------------|
|--1-1-1-1-1-1-1-1-1/6-------------------------------------------|

Chorus
4x
|---------------------------------------------------|
|---------------------------------------------------|
|---------------------------------------------------|
|--1-1-1-1/7--1-1-1-1/4---1-1-1-1/7--1-1-1-1/2------|
|--1-1-1-1/7--1-1-1-1/4---1-1-1-1/7--1-1-1-1/2------|
|--1-1-1-1/7--1-1-1-1/4---1-1-1-1/7--1-1-1-1/2------|


If anyone knows the solo pease tell me

2x
|------------------------------------------------------------------|
|------------------------------------------------------------------|
|------------------------------------------------------------------|
|--8-8-8-8-8-8-8-8/7-7-7-7-7-7/3-3-3-3-3-3-3-3/4-4-4-4/6-6---------|
|--8-8-8-8-8-8-8 8/7-7-7-7-7-7/3-3-3-3-3-3-3-3/4-4-4-4/6-6---------|
|--8-8-8-8-8-8-8-8/7-7-7-7-7-7/3-3-3-3-3-3-3-3/4-4-4-4/6-6---------|

The guitar in this verse starts when the Rob sings "The ragged they come and the ragged
they kill"

4x
|----------------------------------------------------------------|
|----------------------------------------------------------------|
|----------------------------------------------------------------|
|--1-1-1-1-1-1-1-1-1/6-------------------------------------------|
|--1-1-1-1-1-1-1-1-1/6-------------------------------------------|
|--1-1-1-1-1-1-1-1-1/6-------------------------------------------|

Ending

8x
|---------------------------------------------------|
|---------------------------------------------------|
|---------------------------------------------------|
|--1-1-1-1/7--1-1-1-1/4---1-1-1-1/7--1-1-1-1/2------|
|--1-1-1-1/7--1-1-1-1/4---1-1-1-1/7--1-1-1-1/2------|
|--1-1-1-1/7--1-1-1-1/4---1-1-1-1/7--1-1-1-1/2------|
Related for Superbeast tab