Song name
# A B C D E F G H I J K L M N O P Q R S T U V W X Y Z

Robert Plant - If I Were A Carpenter tab

Intro- Repeat twice


      D
E----------------------------------------------------------------|
B-----------3----------3-----3----------3-------3-----3----------|
G--------2----------2----------------2-------2-------------------|
D-----0----------0--------0-------0-------0--------0-------------|
A----------------------------------------------------------------|
E----------------------------------------------------------------|

    C               	         D
E----------------------------------------------------------------|
B----------------------------------3-----3----3------------------|
G--------------0-----------------2-----2-------------------------|
D-----------2------------------------0-----0---------------------|
A--0--2--3--------3-2--0-----------------------------------------|
E-------------------------4/5\0----------------------------------|
                                                      If I were a

Verse
    C               	     A               D
E---------------------------------------------------------------|
B-----------------------------------------------3-----3----3----|
G-------0-------------------------7-----------2-----2-----------|
D----2--------1/2p0---0---------5---5-------------0------0------|
A--3--------3--------3--------5-------5-------------------------|
E---------------------------5-----------5---0-------------------|

   carpenter                      and you were a lady
Tap to rate this tab
 
# A B C D E F G H I J K L M N O P Q R S T U V W X Y Z