Guitaretab - guitar tabs
Song name
# A B C D E F G H I J K L M N O P Q R S T U V W X Y Z

Roberta Flack - The First Time Ever I Saw Your Face tab

#----------------------------------PLEASE NOTE----------------------------------#
# This file is the author's own work and represents their interpretation of the #
# song. You may only use this file for private study, scholarship, or research. #
#-------------------------------------------------------------------------------#

INTRO:
    C          Dm      G7     C           Dm     G7      C
e|-----0---------1-0----1-|---0--------0---1-0-----|---1-------0---------0--| 
b|-----1--1------3--------|---1--1---------3-------|-----------------1------|
g|-----0----0----2-----0--|---0----0-0-----2-------|-------------------0----|
d|------------------------|------------------------|-0----------------------| 
a|------------------------|------------------------|---------3--------------| 
e|------------------------|------------------------|------------------------|
Bass                                                                         
g|-------------------0----|----------------------0-|------------------------|
d|-------------0----------|--------------0-----0---|------------------------| 
a|--3--3------------------|-3----3-3---------------|-----3-------3-3--------| 
e|------------------------|------------------------|------------------------|
____________________________________________________________________________________
[ Tab from: http://www.guitaretab.com/r/roberta-flack/131610.html ]
    Dm          C                          Dm         G7     Dm  The first time . . .
e|-----1-------1--------0-|-------0------------1---|----1----1--------------| 
b|-------------3----------|----1-1-1---------------|---0-----3--------------|
g|---2---------2------0---|-----0---0------2-------|--0------2--------------|
d|------------------------|------------------------|------------------------| 
a|------------------------|------------------------|------------------------| 
e|------------------------|------------------------|------------------------|
Bass                                                                         
g|----------0----0--------|------------------------|-0----------------------|
d|-0-----0---------0------|--------------0-------0-|------------------------| 
a|------------------------|-3-3--------------------|------3------3-3--------| 
e|------------------------|------------------------|------------------------|

The First Time Ever I Saw Your Face.

Dm            G        C            Am
The first time ever I saw your face
                               Em   F
I thought the sun rose in your eyes
                     C          
And the moon and the stars were the gifts you gave
       Bb           C
to the dark and the endless skies my love

to the dark and the endless skies



And the first time ever I kissed your mouth
I felt the earth move in my ha - a - nd,
like a trembling heart of a captive bird,
that was there at my command my love
that was there at my command my love

And the first time ever I lay with you
I felt your heart so close to mine
and I knew our joy would fill the earth
and last till the end of time my love
and it would last till the end of time my love

The first time ever I saw your face
your face
your fa - a - ce
your face

Tabbed : 07Jun04 by StanSo
____________________________________________________________________________________
Related for The First Time Ever I Saw Your Face tab
×
Best way to learn
"The First Time Ever I Saw Your Face"