Guitaretab - guitar tabs
Song name
# A B C D E F G H I J K L M N O P Q R S T U V W X Y Z

Robin Ford - Blues Shuffle tab

The Blues Shuffle

This is a simple song to play sounds good on electric and acoustic so have fun.

Any Corrections E-Mail me on nathansmith5552@hotmail.com


E|---------------------------------------------------------------------------|
B|---------------------------------------------------------------------------|
G|--------------------------------------------------------------02-3-2-0----|
D|------------02-3-2-0------------------02-3-2-0-------2-------------------|
A|-------2----------------2-------2------------------2-3---------------------|
E|---3------------------------3----------------------------------------------|

[ Tab from: http://www.guitaretab.com/r/robin-ford/38816.html ]
E|---------------------------------------------------------------------------|
B|---------------------------------------------------------------------------|
G|---------------------------------------------------------------------------|
D|------------0-2-3-2-0------------------------------------------------------|
A|-------2-------------------------------------------------------------------|
E|---3-----------------------------------------------------------------------|

| / slide up
| \ slide down
| H hammer-on
| P pull-off
| ~ vibrato
| + harmonic
| X Mute note
===============================================================================