Song name
# A B C D E F G H I J K L M N O P Q R S T U V W X Y Z

Robin Trower - In This Place tab

-------------------------------------------------------------------------------
			                           In This Place - Robin Trower
-------------------------------------------------------------------------------


Can't believe this great but simple blues cannot be found anywhere else...as of yet.

Part 1: 12-string guitar (rhythm)
Part 2: 2nd guitar, fill lead
Part 3: Regretfully, I'm no lead player, so I'll let someone else have that. :)

Part One: Play repeatedly from intro to fade.

         1              1              2              2

e|-------0------|-------0------|-------0------|-------0------|
B|------0-0-0---|------0-0-0---|------0-0-0---|------0-0-0---|
G|-----4---4----|-----4---4----|-----2---2----|-----2---2----|
D|----0---------|----0---------|----2---------|----2---------|
A|---5----------|---5----------|---3----------|---3----------|
E|--------------|--------------|--------------|--------------|

         3              3              2              2

e|-------0------|-------0------|-------0------|-------0------|
B|------0-0-0---|------0-0-0---|------0-0-0---|------0-0-0---|
G|-----2---2----|-----2---2----|-----2---2----|-----2---2----|
D|----1---------|----1---------|----2---------|----2---------|
A|---2----------|---2----------|---3----------|---3----------|
E|--------------|--------------|--------------|--------------|

         4              4

e|-------0------|-------0------|
B|------0-0-0---|------0-0-0---|
G|---------0----|---------0----|
D|-----2--------|-----2--------|
A|----2---------|----2---------|
E|---0----------|---0----------|


Part 2: Second guitar w/Mild wah, distortion and vibrato effect


e|--------------|--------------|-----------------|--------------|
B|--------------|--------------|-----------------|--------------|
G|--------------|--------------|-----------------|--------------|
D|--------------|--------------|-----------------|--------------|
A|----5--5h7~---|--------------|----5--5/7--5~---|--------------|
E|-7------------|--------------|-7---------------|--------------|


e|--------------|--------------|-----------------|--------------|
B|--------------|--------------|-----------------|--------------|
G|--------------|--------------|-----------------|--------------|
D|--------------|--------------|-----------------|--------------|
A|-7--5---------|--------------|-7--5------------|--------------|
E|-------7~-----|--------------|-------7-6-5~----|--------------|


e|--------------|--------------|-----------------|--------------|
B|--------------|--------------|-----------------|--------------|
G|--------------|--------------|-----------------|--------------|
D|--------------|--------------|-----------------|--------------|
A|--------------|--------------|-----------------|--------------|
E|-3--5--5/7--0-|--------------|-----------------|--------------|


Chords (play strings individually...Uh? What's that called?)

1 = x50500
2 = x32200
3 = x21200
4 = 022000

                                    In This Place
                                   by Robin Trower

intro: 1, 2, 3, 2, 4 (x2)

        1
In this place
            2             3
Filled with empty space,     your love hold the key

           2
Baby sympa-thize with me
       4
I need you

         1
Before I lost
              2
Your touch of life...and grace
3                                           2
   I knew that your sweet face could always comfort me
  4
I love you


Interlude (2 bars - continue Part 1, begin Part 2)


        1
In this place
        2
Full of empty space
3                                        2
   Your soft and tender love will always shine for me
      4
I love you

      1
Now I know
        2
What it means to have you gone
3                             2
   I'm down on my knees, baby see by me
4
I love you


Outro (Parts 1 & 2 to fade)


| /  slide up
| \  slide down
| h  hammer-on
| p  pull-off
| ~  vibrato
| +  harmonic
| x  Mute note
Tap to rate this tab
# A B C D E F G H I J K L M N O P Q R S T U V W X Y Z