Song name
# A B C D E F G H I J K L M N O P Q R S T U V W X Y Z

Robin Trower - The Fool And Me tab

-------------------------------------------------------------------------------
			     THE FOOL AND ME-Robin Trower
-------------------------------------------------------------------------------
Tabbed by: Grant
Email: Takeashower37@aim.com

Tuning: Standard

This is a fun little piece to play.  It seams accurate.  Sorry if I forgot parts/am a little off.

Intro

e|----------------------------------------------------------------------|
B|----------------------------------------------------------------------|
G|-10---------------------10---------------------10-12^13-12------------|
D|----------10/12------------------10/12--------------------------10/12-|
A|-----8/10--------10/12------8/10--------10/12--------------8/10-------|
E|----------------------------------------------------------------------|

e|-5-5-5-5-|
B|-5-5-5-5-|
G|-5-5-5-5-|
D|---------|
A|---------|
E|---------|

e|---------------------------------------------------------------------|
B|---------------------------------------------------------------------|
G|-10---------------------10---------------------10-12^13-10-----------|
D|----------10/12------------------10/12------------------------12-----|
A|-----8/10--------10/12------8/10--------10/12------------------------|
E|---------------------------------------------------------------------|


e|----------------|
B|-10/12/10-12----|
G|-10/12/10----10-|
D|----------12----|
A|-------------10-|
E|----------------|

Verse

e|---------------------------------------------------------------------|
B|----10-10----5-5-5----10-10------------------------------------------|
G|----10-10----5-5-5----10-10----He plays a series---------------------|
D|----10-10----5-5-5----10-10-----of varied fills----------------------|
A|---------------------------------------------------------------------|
E|-10--------5-------10-------5----------------------------------------|

You go back to the intro
And strum this little chord at the end

e|---
B|-6-
G|-6-
D|-7-
A|---
E|---

(…Nobody Knows…)

e|---------------------------------------------------------------------|
B|---------------------------------------------------------------------|
G|--------------------/10-/10-/10-/10----------------------------------|
D|------------------------------------10/12-10-------------------------|
A|-5-3-5-0---5-3-5-0---------------------------10/12-10----------------|
E|---------------------------------------------------------------------|

Solo
The first part is awfully close
And is similar to what Robin Plays Live

e|-12/14-14-14-14-14----12/14-12/14-12/14-14-14-14-14------------------|
B|-11/13-13-13-13-13-x2-11/13-11/13-11/13-13-13-13-13------Repeat------|
G|-12/14-14-14-14-14----12/14-12/14-12/14-14-14-14-14--------As--------|
D|---------------------------------------------------------Needed------|
A|---------------------------------------------------------------------|
E|---------------------------------------------------------------------|

These next two parts are a bit rough
But they are generally correct

e|-10-10-10-10-------10---------10-10--------10------------------------|
B|-10-10-10-10-12-10-10-12-~10~-10-10-12-10--10-12-~10~-----Repeat-----|
G|-------------12-10----12-~10~-------12-10-----12-~10~-------As-------|
D|----------------------------------------------------------Needed-----|
A|---------------------------------------------------------------------|
E|---------------------------------------------------------------------|

Basically, the are key notes to jam off of

e|---------------------------------------------------------------------|
B|------------------------------------------10-13----------------------|
G|---------------------------------10-12-14----------------------------|
D|---------------------------------------------------------------------|
A|---------------------------------------------------------------------|
E|---------------------------------------------------------------------|

The order shouldn’t be too hard to catch, just listen to the song
Thanks for checking in

| /  slide up
| \  slide down
| h  hammer-on
| p  pull-off
| ~  vibrato
| +  harmonic
| x  Mute note
===============================================================================
Tap to rate this tab
# A B C D E F G H I J K L M N O P Q R S T U V W X Y Z