Song name
# A B C D E F G H I J K L M N O P Q R S T U V W X Y Z

Rocksteddy - Bale Wala tab

Bale Wala

Rocksteddy


|---------------------------------------------------|
|   '&'                                             |
|    #                                              |
|    #     Tabbed by Don Michael Acelar De Leon     |
|   _#_    Eighteen Na Ako!!!                       |
|  ( # )                                            |
|  / O \   donmichael001@yahoo.com                  |
| ( === )                                           |
|  `---'                                            |
|---------------------------------------------------|


Guitar 1--Rhythm, Clean with Slight Fuzz
Guitar 2--Lead, "Juven Pelingon" tone (very sweet distortion, slight phaser and reverb)

*Drum Intro*

Intro

Guitar 1 (Clean)

|-----3-2-3-2--3-2-3-2--3-2-3-2--3~-3X3xx3-3\-|
|-----3-3-3-3--3-3-3-3--3-3-3-3--3~-3X3xx3-3\-|
|-----0-0-0-0--0-0-0-0--0-0-0-0--0~-0X0xx0-0\-|
|-----0-0-0-0--2-2-2-2--0-0-0-0--2~-2x2xx2-2\-|*volume swell, Guitar 2*
|-----x-x-x-x--0-0-0-0--2-2-2-2--3~-3X3xx3-3\-|
|-15/-3-3-3-3---------------------------------|

Main Intro--Do Guitar 1 Chords

Guitar 2

|-7h8p7-----8s10~~--7h8p7-------------------------------|
|-------8~----------------8~----------------------------|
|---------7-----------------7-7~~~---7-7-7~~~-5-4-------|
|-------------------------------------------------5~~\--|
|-------------------------------------------------------|
|-------------------------------------------------------|

Verse

"Kanina pa nasa tabi..."

Guitar 1 (Clean)

|-3--3--3--3--|
|-3--3--3--3--|
|-0--0--0--0--|
|-0--2--0--2--|
|-x--0--2--3--|
|-3-----------|

Guitar 2

Verse Riff

|-------------------------------|
|-------------------------------|
|-12-xx-12-xx-12-xx-------12----|
|-------------------12-14----14-|*repeat*
|-------------------------------|
|-------------------------------|

Prechorus

"Hanggang dito na lamang ba..."

|-0~--0~--3---|
|-1~--3~--3~--|
|-2~--2~--0~--|
|-2~--x~--2~--|*repeat once*
|-0~--2~--3~--|
|-------------|

Chorus

"Bale wala ang salita..."

|-3~--3~--0~--2~--3~--|
|-3~--3~--1~--3~--3~--|
|-0~--0~--2~--2~--0~--|*repeat once*
|-0~--2~--2~--0~--2~--|
|-2~--3~--0~--2~--3~--|
|-3~------------------|

Interlude

Guitar 2 (Clean)

|-7h8p7-----------------------------------------------------|
|-8-----8~--------------------------------------------------|
|----------7-7~~--7\5\4~~~----------------------------------|
|-----------------9\7\5~~~---7p5------5---5---5-5~~---5~~~\-|
|--------------------------5-----5~~----7---7-------7-------|
|-----------------------------------------------------------|

Verse 2--Do Verse Chords

Chorus

Guitar Solo

Guitar 1--Do Chorus Chords

Guitar 2


|-8s10~~~-8-7-8~~~~/-----------------*7---*8--7h8p7------------------------------------------|
|------------------------*8----*10------------------8~~~~/-----------------------------------|
|---------------------*7----*7-----*7--*7----------------------------------------------------|
|-------------------------------------------------------------(9h10p9)-----------------------|
|---------------------------------------------------------------------(10)------(10h12~~~10)-|
|--------------------------------------------------------------------------(10)--------------|

* - palm mute
( )- pinch harmonic



(palm mute this part)
|----------------------------------------------------------------------------------|
|----------------------------------------------------------------------------------|
|-0----12-11-11-------0-12----11-----------0----12----11----0----12----11----------|
|---12----------12-12------12----12-12~~~----12----12----12---12----12----12-12~~~-|
|----------------------------------------------------------------------------------|
|----------------------------------------------------------------------------------|


|---------------------------19p15----17p15--20s22~~-20-19----------------------|
|------------------15~---15-------15----------------------20~~----22b2422~~~~~-|
|-------12/--14h16---------------------------------------------19--------------|
|-12h14------------------------------------------------------------------------|
|------------------------------------------------------------------------------|
|------------------------------------------------------------------------------|


Juven is a shred god.

Bridge

"Di mo na kailangan pang sabihin..."

|-0~---------------------------------|
|-3~---------------------------------|
|-2~---------------------------------|
|-0~---------------------------------|3 times
|-----3~~~-2~~~-0~~~-----------------|
|--------------------3~~~--2~~~-0~~~-|

"Di na importante..."

|------------------|
|------------------|
|-5--7--9--11-12~~-|
|------------------|
|-3--5--7--9--10~~-|
|------------------|

Final chorus

"Ang lahat (break) ng ito (break)"

*Listen to the song for break timings*

End in G


10:22 - 12:37 p.m, December 24, 2006

Merry Christmas to All!


My warmest thanks to...

Juven Pelingon and the Rocksteddy band
Mayor Jejomar Binay and the City Government of Makati
Miss Tarra Quismundo and the Philippine Daily Inquirer
Mama, Family and Friends
Bandmates Jo Margarette Remollo and Abraham Jezreel Pincaro of Heartburn
Bandmates Richard Cruz and Bernard Mendoza of Lunchbox
Ateneo De Manila University (Block A4 Rocks!)
Herson Colico Beltran (Our Music lives on, dear brother and friend!)


Copyright 2006 by Don Michael Acelar De Leon. All Rights Reserved.
Tap to rate this tab
# A B C D E F G H I J K L M N O P Q R S T U V W X Y Z