Song name
# A B C D E F G H I J K L M N O P Q R S T U V W X Y Z

Rocksteddy - No Touch tab

                No Touch-Rocksteddy
Tabber-jd garcia(krung)
email/friendster-jdgarcia1@yahoo.com.ph

heto lang po kaya ko

Intro:

Guitar 2
e|-19-14------------14-19-14-------------14-19-14------------14-19-14---|
B|-------17----17-17----------17----17-17----------17----17-17----------|
G|----------16-------------------16-------------------16----------------|
D|----------------------------------------------------------------------|
A|----------------------------------------------------------------------|
E|----------------------------------------------------------------------|

e|-----------14-19-14-------------14-19-14-------------14-19-14---------|
B|-17----17-17----------17----17-17----------17----17-17----------17----|
G|----16-------------------16-------------------16-------------------16-|
D|----------------------------------------------------------------------|
A|----------------------------------------------------------------------|
E|----------------------------------------------------------------------|

e|-------14-17-16----------14-17-16-------------14-17-16----------------|
B|-17-17----------17----17----------17----17-17----------17-------------|
G|-------------------16----------------16-------------------16----------|
D|----------------------------------------------------------------------|
A|----------------------------------------------------------------------|
E|----------------------------------------------------------------------|

e|----------------------------------------------------------------------|
B|-17-15-14-12-10-------------------------------------------------------|
G|----------------------------------------------------------------------|
D|----------------------------------------------------------------------|
A|----------------------------------------------------------------------|
E|----------------------------------------------------------------------|    


Guitar 1
e|----------------------------------------------------------------------|
b|----------------------------------------------------------------------|
g|------------------------------------------5-7-6-4---------------------|
D|-99999999999999999999999999999999999999---5-7-6-4--7------------------|
A|-99999999999999999999999999999999999999---7-5-4-2--7------------------|
E|-77777777777777777777777777777777777777------------5------------------|


Verse: guitar 1&2


e|-----------------------------------------------------|
B|-----------------------------------------------------|
G|-----------------------------------------------------| 2x
D|----------------5------------------------------------|
A|--------5---7------7--5------------------------------|
E|--3----5---7-------------7---------------------------|
    .      



e|-----------------------------------------------------|
B|-----------------------------------------------------|
G|----------------5------------------------------------| 2x
D|--------5--7-------7--5------------------------------|
A|--3---5---7--------------7---------------------------|
E|-----------------------------------------------------|
    .

Refrain:
e|-----------------------------------------------------|
b|-----------------------------------------------------|
g|7777--4444--7777---4444--7777-9-7-6--4---------------|
D|7777--4444--7777---4444--7777-9-7-6--4--7------------|
A|5555--2222--5555---2222--5555-7-5-4--2--7------------|
E|----------------------------------------5------------|
                                . . .  .  .




Chorus:
e|-----------------------------------------------------|
B|-----------------------------------------------------|
G|-----------------------------------------------------| 2x
D|----------------5------------------------------------|
A|--------5---7------7--5------------------------------|
E|--3----5---7-------------7---------------------------|
    .      
                                 
Tap to rate this tab
 
# A B C D E F G H I J K L M N O P Q R S T U V W X Y Z