Song name
# A B C D E F G H I J K L M N O P Q R S T U V W X Y Z

Rocky Horror - Dont Dream It tab

----------------------------------------------------------------------------
			     Don't dream it - Rocky Horror
----------------------------------------------------------------------------

Tabbed by: Alexandra
Email: usherette@web.de

Tuning: Standard


This is just the part where they sing "Don't dream - Be it"
If you want to talk about Rocky Horror, feel free to e-mail me!



        C               Am              F               G
e|------------0-----------------------------------------------3-------|
B|---------1-----------------1-----------------1-----------0----------|
G|------0-----------------2-----------------2-----------0-------------|
D|---------------------2-----------------3----------------------------|
A|---3--------------0-------------------------------------------------|
E|------------------------------------1--------------3----------------|
Tap to rate this tab
 
# A B C D E F G H I J K L M N O P Q R S T U V W X Y Z