Song name
# A B C D E F G H I J K L M N O P Q R S T U V W X Y Z

Rod Stewart - Have You Ever Seen The Rain tab

HAVE YOU EVER SEEN THE RAIN - ROD STEWART

############### SOLO TAB ##################

CAPPO #4
E|-------------------------------------------------------------------------|
B|------1-0------0h1---3---3---3---3---------------------------------------|
G|----------2--------0---0---------------0---0-----------------------------|
D|---------------------------4---4---2-4---4---4-2-0-----------------------|
A|--3-3--------------------------------------------------------------------|
E|-------------------------------------------------------------------------|

CAPPO #4
E|-------------------------------------------------------------------------|
B|------1-0------------3---3---3---3---------------------------------------|
G|----------2---2p0----------------------0---0-----------------------------|
D|------------------/5---5---4---4---2-4---4---4-2-0-----------------------|
A|--3-3--------------------------------------------------------------------|
E|-------------------------------------------------------------------------|

CAPPO #4
E|------0------------------------------------------------------------------|
B|--------3---------0--1-1p0-----------------------------------------------|
G|----------2---0h2----------2p0-0-------0---0-----------------------------|
D|-----------------------------------2-4---4---4-2-0-----------------------|
A|--3-3--------------------------------------------------------------------|
E|-------------------------------------------------------------------------|

##### CHORUS (my way) ####
CAPPO #4
E|-------------------------------------------------------------------------|
B|--1---1-----------3-------------3-----3----------------------------------|
G|--0-----0---0---2---2---2---2-----0-----0-----0---0----------------------|
D|--2-------2---0-------0---0---0-----------2-4---4---4-2-0----------------|
A|--3-3-------------------------2-----0------------------------------------|
E|------------------------------3-----2------------------------------------|

##### end of verse/chorus ####
CAPPO #4
E|--------------------|
B|--------------------|
G|---0-0---0---0---0--|
D|-------4---2---0----|
A|--------------------|
E|--------------------|

mady by Mite

corrections\suggestions - braincrasher666@gmail.com
Tap to rate this tab
# A B C D E F G H I J K L M N O P Q R S T U V W X Y Z