Song name
# A B C D E F G H I J K L M N O P Q R S T U V W X Y Z

Rodriguez Johnny - Pass Me By tab

e|-----------------------------------------------|
B|-----------------------------------------------|
G|-----------------------------------------------|
D|---------------------------2-1-2-------1---1---|
A|--4--7-6-7---4--7-6-7---0----------\2----4-----|
E|---4----------4----------0-----------2---------|

e|-----------------------------------------------|
B|-----------------------------------------------|
G|-----------------------------------------------|
D|---------------------------2-1-2---------4-4-6\|
A|--4--7-6-7---4--7-6-7---0----------\2-/5-------|
E|---4----------4----------0---------------------|

It takes a couple of moments to get those slides right, but it sounds perfect once you get it.
Tap to rate this tab
 
# A B C D E F G H I J K L M N O P Q R S T U V W X Y Z