Song name
# A B C D E F G H I J K L M N O P Q R S T U V W X Y Z

Roger Glover - Love Is All tab

   Irakli Charkviani was greate Georgian singer
   song name: Love is all(tribute version by pecho)


   Text intro(for identification): why u wanna cry, the story is over...


E-------------|-----------|------------|-----------|----------|-----------|
B-------------|-----------|------------|-----------|------1---|------1----|
G--------0----|------0----|-------0----|------0----|----2---2-|----2---2--|
D------2---2--|----2---2--|-----2---2--|----2---2--|--0-------|--0--------|
A----3--------|--3--------|------------|-----------|----------|-----------|
E-------------|-----------|--0---------|--0--------|----------|-----------|

E-------------|-------------|--------------|
B--------0----|--------0----|--------------|
G------0---0--|------0---0--|--------------|
D-------------|-------------|--------------|
A-------------|-------------|--------------|
E---3---------|---3---------|--------------|
Again and again

http://www.irakli.com/

 send me your inovation or experimental interpretation of this song...
 good luck!
 teimuraz13@hotmail.com
Tap to rate this tab
# A B C D E F G H I J K L M N O P Q R S T U V W X Y Z