Song name
# A B C D E F G H I J K L M N O P Q R S T U V W X Y Z

Roger Mcguinn - The Tears tab

The part is better played with 2 guitarists, one doing the tabs and one doing the power 
but it still works quite well with one.

E|--------------------------------------|
B|--------------------------------------|
G|---12----14------------17-------------|
D|------14----14--10--14----16----------|
A|--------------------------------------|
E|--------------------------------------|


E|--------------------|
B|--------------------|
G|---12----14---------|
D|------14----14--12--|
A|--------------------|
E|--------------------|


I don't know how many times each chord is played but it's pretty simple to work out.

Fear of an enemy a hand to a face...
E|-------------------|
B|-------------------|
G|--------------5----|
D|----5----7----5----|
A|----5----7----3----|
E|----3----5---------|

^ This part is repeated up until 'i'll cut her (i will fuck her up)', Then the tab is 
once again-

E|--------------------------------------|
B|--------------------------------------|
G|---12----14------------17-------------|
D|------14----14--10--14----16----------|
A|--------------------------------------|
E|--------------------------------------|


E|--------------------|
B|--------------------|
G|---12----14---------|
D|------14----14--12--|
A|--------------------|
E|--------------------|


Crazed by my make believe a tongue down a throat...
E|-------------------|
B|-------------------|
G|--------------5----|
D|----5----7----5----|
A|----5----7----3----|
E|----3----5---------|

^ This part is repeated up until the chorus-

I'm your slave, got to taste...
E|-----------------------------|
B|-----------------------------|
G|----7----5---------5---------|
D|----7----5----5----5---------|
A|----5----3----5----3---------|
E|--------------3--------------|
                                 \
                                  > repeat.
                                 /
E|-----------------------------|
B|-----------------------------|
G|----7----5-------------------|
D|----7----5----5--------------|
A|----5----3----5--------------|
E|--------------3--------------|

Back to tabs -

E|--------------------------------------|
B|--------------------------------------|
G|---12----14------------17-------------|
D|------14----14--10--14----16----------|
A|--------------------------------------|
E|--------------------------------------|


E|--------------------|
B|--------------------|
G|---12----14---------|
D|------14----14--12--|
A|--------------------|
E|--------------------|


After this its basically the bridge+chorus again. (bridge being 'red light panic terror').


Hope this helps (:
Katie.
Tap to rate this tab
# A B C D E F G H I J K L M N O P Q R S T U V W X Y Z