Song name
# A B C D E F G H I J K L M N O P Q R S T U V W X Y Z

Rogers Kenny - Ruby tab

Help us improve GuitareTab! Take a short survey!
Ruby - Kiaser Chiefs

Tabber - Gossy07

This is my first one but its good 

INTRO

E|-----3P2----3P2----3P2----3P2----|
B|-----3-3----3-3----3-3----3-3----|
G|-----2-2----2-2----2-2----2-2----|
D|---------------------------------|
A|---------------------------------|
E|---------------------------------|


RIFF


E|------------------3P2--3P3------------------------------------------3P2--3P3-------------------------------------|
B|------------------3-3--3-3------------------------------------------3-3--3-3-------------------------------------|
G|------------------2-2--2-2------------------------------------------2-2--2-2-------------------------------------|
D|------------------------------------------2-O--------------------------------------------------2-O---------------|
A|----O--OH3------------------O--OH3------------3-2----O--OH3-------------------O--OH3----------------3-2-O--------|
E|-----------O--OH3------------------O--OH3-------------------O--OH3--------------------O--OH3---------------3-1-O-|


VERSE 1


	AM		     EM
LET IT NEVER BE SAID, THAT ROMANCE IS DEAD

	BM		     DMAJ
COS THERES SO LITTLE ELSE, OCCUPYING MY HEAD

	AM			     EM
THERE IS NOTHING INEED, EXCEPT THE FUNCTION TO BREATHE

	BM			   DMAJ
BUT IM NOT REALLY FUSSED, DOESN'T MATTER TO ME



KEEP STRUMING D MAJ THEN STOP AT WORDS ON CHORUS

CHORUS

RUBY, RUBY, RUBY, RUBY


ON LAST WORD
E|-----OO--OO--2222-|
B|-----11--0O--3333-|
G|-----22--OO--2222-|
D|-----22--22--OOOO-|
A|-----O0--22-------|
E|-----O0--OO-------|

DO YA,DO YA, DO YA, DO YA


ON LAST WORD
E|-----OO--OO--2222-|
B|-----11--0O--3333-|
G|-----22--OO--2222-|
D|-----22--22--OOOO-|
A|-----O0--22-------|
E|-----O0--OO-------|

KNOW WHY YOU DO IT, DO IT TO ME?


ON LAST WORD
E|---------------------------|
B|---------------------------|
G|---------------------------| REPEAT CHORDS
D|------------------2-O------| BEHIND RIFF
A|--O--OH3--------------3--2-|
E|----------O--OH3-----------|

RUBY, RUBY, RUBY, RUBY


ON LAST WORD
E|---------------------|
B|---------------------|
G|---------------------| REPEAT CHORDS
D|------------------2--| BEHIND RIFF
A|--O--OH3-------------|
E|----------O--OH3-----|


VERSE 2


	AM		      EM
DUE TO LACK OF INTEREST, TOMORROW IS CANCELLED

	  BM		         DMAJ
LET THE CLOCKS BE RESET, AND THE PENDULEMS HELD

	    AM			       EM
COS THERE'S NOTHING AT ALL, EXCEPT THE SPACE INBETWEEN

	BM				DMAJ
FINDING OUT WHAT YOU'RE CALLED, AND REPEATING YOUR NAME


KEEP STRUMING D MAJ THEN STOP AT WORDS ON SHOROUS

CHORUS

RUBY, RUBY, RUBY, RUBY


ON LAST WORD
E|-----OO--OO--2222-|
B|-----11--0O--3333-|
G|-----22--OO--2222-|
D|-----22--22--OOOO-|
A|-----O0--22-------|
E|-----O0--OO-------|

DO YA,DO YA, DO YA, DO YA


ON LAST WORD
E|-----OO--OO--2222-|
B|-----11--0O--3333-|
G|-----22--OO--2222-|
D|-----22--22--OOOO-|
A|-----O0--22-------|
E|-----O0--OO-------|

KNOW WHY YOU DO IT, DO IT TO ME?


ON LAST WORD
E|---------------------------|
B|---------------------------|
G|---------------------------| REPEAT CHORDS
D|------------------2-O------| BEHIND RIFF
A|--O--OH3--------------3--2-|
E|----------O--OH3-----------|

RUBY, RUBY, RUBY, RUBY


ON LAST WORD
E|---------------------|
B|---------------------|
G|---------------------| REPEAT CHORDS
D|------------------2--| BEHIND RIFF
A|--O--OH3-------------|
E|----------O--OH3-----|


MIDDLE 8

EM				    CMAJ

COULD IT BE, COULD IT BE THAT YOUR JOKING WITH ME

AM			     DMAJ   EbMAJ
AND YOU DON'T REALLY SEE YOU WITH ME

EM
COULD IT BE, COULD IT BE THAT YOUR JOKING WITH ME

AM			     DMAJ   EbMAJ
AND YOU DON'T REALLY SEE YOU WITH ME

SOLO

IN PATTERN WITH THE MIDDLE 8

E|-|---------------------------------------|
B| |---------------------------------------|
G|.|--4--2--4----4--2--4-----2--4--2-------|FIRST LINE
D|.|----------------------5----------5--2--|
A| |---------------------------------------|
E|-|---------------------------------------|

E|--------------------------------------|-|
B|--------------------------------------| |
G|--------2--4--2-----------2--4--2--3--|.|SECOND LINE
D|--2--5-----------5--2--5--------------|.|
A|--------------------------------------| |
E|--------------------------------------|-|


CHORUS

RUBY, RUBY, RUBY, RUBY


ON LAST WORD
E|-----OO--OO--2222-|
B|-----11--0O--3333-|
G|-----22--OO--2222-|
D|-----22--22--OOOO-|
A|-----O0--22-------|
E|-----O0--OO-------|

DO YA,DO YA, DO YA, DO YA


ON LAST WORD
E|-----OO--OO--2222-|
B|-----11--0O--3333-|
G|-----22--OO--2222-|
D|-----22--22--OOOO-|
A|-----O0--22-------|
E|-----O0--OO-------|

KNOW WHY YOU DO IT, DO IT TO ME?


ON LAST WORD
E|---------------------------|
B|---------------------------|
G|---------------------------| REPEAT CHORDS
D|------------------2-O------| BEHIND RIFF
A|--O--OH3--------------3--2-|
E|----------O--OH3-----------|

RUBY, RUBY, RUBY, RUBY


ON LAST WORD
E|---------------------|
B|---------------------|
G|---------------------| REPEAT CHORDS
D|------------------2--| BEHIND RIFF
A|--O--OH3-------------|
E|----------O--OH3-----|


THINGS TO KNOW:

H - HAMMER ON
P - PULL OFF
|.| - REPEAT TWICE
Related for Ruby tab