Song name
# A B C D E F G H I J K L M N O P Q R S T U V W X Y Z

Roky Erickson - Two Headed Dog Red Temple Prayer tab

Hello, here's one I just happen to tab by "accident" I didn't have any plans to, but I 
it anyway when I just started jammin' it and I was being tired of UG's lack of tabs from 
like Roky.

It's an easy one, listen to the song yourself to figure out the structure.

Enjoy

Riff A:
Rhythm
E-----------------------------------------|
B-----------------------------------------|
G-----------------------------------------|
D-7/9--9-9--7/9--9-9--5-5--7-7--7/9--9-9--|
A-7/9--9-9--7/9--9-9--5-5--7-7--7/9--9-9--|
E-5/7--7-7--5/7--7-7--3-3--5-5--5/7--7-7--|

Lead
E---------|
B---------|
G-9b-7----|
D------9--|
A---------|
E---------|


Riff B:
Rhythm
E-----------------------------------|
B-----------------------------------|
G-----------------------------------|
D-9-9-9-9-9-9-9-9--5-5-5-5--7-7-7-7-|
A-9-9-9-9-9-9-9-9--5-5-5-5--7-7-7-7-|
E-7-7-7-7-7-7-7-7--3-3-3-3--5-5-5-5-|


Tabbed by Mads Yde aka. Ridder Lugtepik
Tap to rate this tab
# A B C D E F G H I J K L M N O P Q R S T U V W X Y Z