Roky Erickson - I Walked With A Zombie tab

I walked with a Zombie
By: Roky Erickson
From the album: The Evil One (featuring the Aliens)

Tabbed by Matthew Choat ( moc0007@gmail.com )

Intro:
Bass drum 1.2.3… 1.2.3… 1.2.3… then guitar joins with a palm muted C5.


Chorus:

C5                       C5 B5 A5                       A5 G5 F5
   I walked with a zombie         I walked with a zombie
                   G5           C5   (riff 1)
   I walked with a zombie last night

Riff 1: (@ 0:22)
e:--------------------------------|
B:-5-3-5-----3h5-3---3h5----------|
G:-------5---------5-----5-5~-----|
D:--------------------------------|
A:--------------------------------|
E:--------------------------------|


C5                      C5 B5 A5                        A5 G5 F5
   I walked with a zombie         I walked with a zombie
                   G5           C5   (riff 1)
   I walked with a zombie last night


C5                      C5 B5 A5                        A5 G5 F5
   I walked with a zombie         I walked with a zombie
                   G5           C5
   I walked with a zombie last night


1st Solo: (@ 0:55)
e:---------------------8-----------------------8---------|
B:---------8-8~-6p5-6-8--6-5-------5-8~-6p5-6-8--6-5-----|
G:---------------------------7-----------------------7---|
D:-555555----------------------7-----------------------7-|
A:-------------------------------------------------------|
E:-------------------------------------------------------|
(@ 1:05)
e:---------------------------------------------|
B:---5-------8-6h5---------------5-------------|
G:-5---5---5-------7-5~--5h7-5-7---------------|
D:-------5-------------------------55555555----|
A:---------------------------------------------|
E:---------------------------------------------|


Repeat Chorus


Alternate Chorus: (@ 2:00)

C                        C-B-A#-A                        A-G#-G-F
   I walked with a zombie          I walked with a zombie
                   G            C
   I walked with a zombie—last night


Outro Solo: (@ 2:15)

e:------------------------------------------------------------------------|
B:------------------------------------------------------------------------|
G:-5-2-5-2-5\9----9~-9-9-7----7-9-9-7-9-9-7-9-9-7-9-7----7-9-9-7-9-9-7-9~-|
D:-------------10----------10-------------------------10------------------|
A:------------------------------------------------------------------------|
E:------------------------------------------------------------------------|

(@ 2:29)
e:--------------------------------------------|
B:-8~---10-8---10-8---10-8--------------------|
G:-----------9------9------9-7----7-----------|
D:-----------------------------10-------------|
A:--------------------------------------------|
E:--------------------------------------------| x2 (fade to end)
Tap to rate this tab
 
# A B C D E F G H I J K L M N O P Q R S T U V W X Y Z